  0
SECTION
  2
HEADER
  9
$ACADVER
  1
AC1015
  9
$ACADMAINTVER
 70
     6
  9
$DWGCODEPAGE
  3
ANSI_1254
  9
$INSBASE
 10
0.0
 20
0.0
 30
0.0
  9
$EXTMIN
 10
0.0
 20
0.0
 30
0.0
  9
$EXTMAX
 10
279.4
 20
215.9
 30
0.0
  9
$LIMMIN
 10
0.0
 20
0.0
  9
$LIMMAX
 10
279.4
 20
215.9
  9
$ORTHOMODE
 70
     0
  9
$REGENMODE
 70
     1
  9
$FILLMODE
 70
     1
  9
$QTEXTMODE
 70
     0
  9
$MIRRTEXT
 70
     1
  9
$LTSCALE
 40
1.0
  9
$ATTMODE
 70
     1
  9
$TEXTSIZE
 40
3.5
  9
$TRACEWID
 40
1.0
  9
$TEXTSTYLE
  7
Standard
  9
$CLAYER
  8
0
  9
$CELTYPE
  6
ByLayer
  9
$CECOLOR
 62
   256
  9
$CELTSCALE
 40
1.0
  9
$DISPSILH
 70
     0
  9
$DIMSCALE
 40
1.0
  9
$DIMASZ
 40
3.5
  9
$DIMEXO
 40
1.0
  9
$DIMDLI
 40
3.75
  9
$DIMRND
 40
0.0
  9
$DIMDLE
 40
0.0
  9
$DIMEXE
 40
1.0
  9
$DIMTP
 40
0.0
  9
$DIMTM
 40
0.0
  9
$DIMTXT
 40
3.5
  9
$DIMCEN
 40
2.5
  9
$DIMTSZ
 40
0.0
  9
$DIMTOL
 70
     0
  9
$DIMLIM
 70
     0
  9
$DIMTIH
 70
     1
  9
$DIMTOH
 70
     1
  9
$DIMSE1
 70
     0
  9
$DIMSE2
 70
     0
  9
$DIMTAD
 70
     1
  9
$DIMZIN
 70
     0
  9
$DIMBLK
  1

  9
$DIMASO
 70
     1
  9
$DIMSHO
 70
     1
  9
$DIMPOST
  1

  9
$DIMAPOST
  1

  9
$DIMALT
 70
     0
  9
$DIMALTD
 70
     3
  9
$DIMALTF
 40
0.0393700787
  9
$DIMLFAC
 40
1.0
  9
$DIMTOFL
 70
     1
  9
$DIMTVP
 40
0.0
  9
$DIMTIX
 70
     0
  9
$DIMSOXD
 70
     0
  9
$DIMSAH
 70
     0
  9
$DIMBLK1
  1

  9
$DIMBLK2
  1

  9
$DIMSTYLE
  2
ISO-25
  9
$DIMCLRD
 70
     0
  9
$DIMCLRE
 70
     0
  9
$DIMCLRT
 70
     0
  9
$DIMTFAC
 40
1.0
  9
$DIMGAP
 40
1.524
  9
$DIMJUST
 70
     0
  9
$DIMSD1
 70
     0
  9
$DIMSD2
 70
     0
  9
$DIMTOLJ
 70
     0
  9
$DIMTZIN
 70
     0
  9
$DIMALTZ
 70
     0
  9
$DIMALTTZ
 70
     0
  9
$DIMUPT
 70
     0
  9
$DIMDEC
 70
     2
  9
$DIMTDEC
 70
     2
  9
$DIMALTU
 70
     2
  9
$DIMALTTD
 70
     3
  9
$DIMTXSTY
  7
Standard
  9
$DIMAUNIT
 70
     0
  9
$DIMADEC
 70
     2
  9
$DIMALTRND
 40
0.0
  9
$DIMAZIN
 70
     0
  9
$DIMDSEP
 70
    44
  9
$DIMATFIT
 70
     3
  9
$DIMFRAC
 70
     0
  9
$DIMLDRBLK
  1

  9
$DIMLUNIT
 70
     2
  9
$DIMLWD
 70
    -2
  9
$DIMLWE
 70
    -2
  9
$DIMTMOVE
 70
     0
  9
$LUNITS
 70
     2
  9
$LUPREC
 70
     2
  9
$SKETCHINC
 40
1.0
  9
$FILLETRAD
 40
10.0
  9
$AUNITS
 70
     0
  9
$AUPREC
 70
     2
  9
$MENU
  1
.
  9
$ELEVATION
 40
0.0
  9
$PELEVATION
 40
0.0
  9
$THICKNESS
 40
0.0
  9
$LIMCHECK
 70
     0
  9
$CHAMFERA
 40
0.0
  9
$CHAMFERB
 40
0.0
  9
$CHAMFERC
 40
0.0
  9
$CHAMFERD
 40
0.0
  9
$SKPOLY
 70
     0
  9
$TDCREATE
 40
2459741.614621354
  9
$TDUCREATE
 40
2459741.489621354
  9
$TDUPDATE
 40
2459741.614621528
  9
$TDUUPDATE
 40
2459741.489621528
  9
$TDINDWG
 40
0.0000000116
  9
$TDUSRTIMER
 40
0.0000000116
  9
$USRTIMER
 70
     1
  9
$ANGBASE
 50
0.0
  9
$ANGDIR
 70
     0
  9
$PDMODE
 70
     0
  9
$PDSIZE
 40
-1.0
  9
$PLINEWID
 40
0.0
  9
$SPLFRAME
 70
     0
  9
$SPLINETYPE
 70
     6
  9
$SPLINESEGS
 70
     8
  9
$HANDSEED
  5
143
  9
$SURFTAB1
 70
     6
  9
$SURFTAB2
 70
     6
  9
$SURFTYPE
 70
     6
  9
$SURFU
 70
     6
  9
$SURFV
 70
     6
  9
$UCSBASE
  2

  9
$UCSNAME
  2

  9
$UCSORG
 10
0.0
 20
0.0
 30
0.0
  9
$UCSXDIR
 10
1.0
 20
0.0
 30
0.0
  9
$UCSYDIR
 10
0.0
 20
1.0
 30
0.0
  9
$UCSORTHOREF
  2

  9
$UCSORTHOVIEW
 70
     0
  9
$UCSORGTOP
 10
0.0
 20
0.0
 30
0.0
  9
$UCSORGBOTTOM
 10
0.0
 20
0.0
 30
0.0
  9
$UCSORGLEFT
 10
0.0
 20
0.0
 30
0.0
  9
$UCSORGRIGHT
 10
0.0
 20
0.0
 30
0.0
  9
$UCSORGFRONT
 10
0.0
 20
0.0
 30
0.0
  9
$UCSORGBACK
 10
0.0
 20
0.0
 30
0.0
  9
$PUCSBASE
  2

  9
$PUCSNAME
  2

  9
$PUCSORG
 10
0.0
 20
0.0
 30
0.0
  9
$PUCSXDIR
 10
1.0
 20
0.0
 30
0.0
  9
$PUCSYDIR
 10
0.0
 20
1.0
 30
0.0
  9
$PUCSORTHOREF
  2

  9
$PUCSORTHOVIEW
 70
     0
  9
$PUCSORGTOP
 10
0.0
 20
0.0
 30
0.0
  9
$PUCSORGBOTTOM
 10
0.0
 20
0.0
 30
0.0
  9
$PUCSORGLEFT
 10
0.0
 20
0.0
 30
0.0
  9
$PUCSORGRIGHT
 10
0.0
 20
0.0
 30
0.0
  9
$PUCSORGFRONT
 10
0.0
 20
0.0
 30
0.0
  9
$PUCSORGBACK
 10
0.0
 20
0.0
 30
0.0
  9
$USERI1
 70
     0
  9
$USERI2
 70
     0
  9
$USERI3
 70
     0
  9
$USERI4
 70
     0
  9
$USERI5
 70
     0
  9
$USERR1
 40
0.0
  9
$USERR2
 40
0.0
  9
$USERR3
 40
0.0
  9
$USERR4
 40
0.0
  9
$USERR5
 40
0.0
  9
$WORLDVIEW
 70
     1
  9
$SHADEDGE
 70
     3
  9
$SHADEDIF
 70
    70
  9
$TILEMODE
 70
     1
  9
$MAXACTVP
 70
    64
  9
$PINSBASE
 10
0.0
 20
0.0
 30
0.0
  9
$PLIMCHECK
 70
     0
  9
$PEXTMIN
 10
1.0000000000E+20
 20
1.0000000000E+20
 30
1.0000000000E+20
  9
$PEXTMAX
 10
-1.0000000000E+20
 20
-1.0000000000E+20
 30
-1.0000000000E+20
  9
$PLIMMIN
 10
0.0
 20
0.0
  9
$PLIMMAX
 10
420.0
 20
297.0
  9
$UNITMODE
 70
     0
  9
$VISRETAIN
 70
     1
  9
$PLINEGEN
 70
     0
  9
$PSLTSCALE
 70
     1
  9
$TREEDEPTH
 70
  3020
  9
$CMLSTYLE
  2
Standard
  9
$CMLJUST
 70
     0
  9
$CMLSCALE
 40
20.0
  9
$PROXYGRAPHICS
 70
     1
  9
$MEASUREMENT
 70
     1
  9
$CELWEIGHT
370
    -1
  9
$ENDCAPS
280
     0
  9
$JOINSTYLE
280
     0
  9
$LWDISPLAY
290
     1
  9
$INSUNITS
 70
     4
  9
$HYPERLINKBASE
  1

  9
$STYLESHEET
  1

  9
$XEDIT
290
     1
  9
$CEPSNTYPE
380
     0
  9
$PSTYLEMODE
290
     1
  9
$FINGERPRINTGUID
  2
{48ec3fd2-19b9-429e-a908-0cb33a650b14}
  9
$VERSIONGUID
  2
{FAEB1C32-E019-11D5-929B-00C0DF256EC4}
  9
$EXTNAMES
290
     1
  9
$PSVPSCALE
 40
0.0
  9
$OLESTARTUP
290
     0
  0
ENDSEC
  0
SECTION
  2
CLASSES
  0
CLASS
  1
ACDBDICTIONARYWDFLT
  2
AcDbDictionaryWithDefault
  3
ObjectDBX Classes
 90
        0
280
     0
281
     0
  0
CLASS
  1
VISUALSTYLE
  2
AcDbVisualStyle
  3
ObjectDBX Classes
 90
     4095
280
     0
281
     0
  0
CLASS
  1
MATERIAL
  2
AcDbMaterial
  3
ObjectDBX Classes
 90
     1153
280
     0
281
     0
  0
CLASS
  1
SCALE
  2
AcDbScale
  3
ObjectDBX Classes
 90
     1153
280
     0
281
     0
  0
CLASS
  1
TABLESTYLE
  2
AcDbTableStyle
  3
ObjectDBX Classes
 90
     4095
280
     0
281
     0
  0
CLASS
  1
MLEADERSTYLE
  2
AcDbMLeaderStyle
  3
ACDB_MLEADERSTYLE_CLASS
 90
     4095
280
     0
281
     0
  0
CLASS
  1
SUN
  2
AcDbSun
  3
SCENEOE
 90
     1153
280
     0
281
     0
  0
CLASS
  1
ACDBPLACEHOLDER
  2
AcDbPlaceHolder
  3
ObjectDBX Classes
 90
        0
280
     0
281
     0
  0
CLASS
  1
LAYOUT
  2
AcDbLayout
  3
ObjectDBX Classes
 90
        0
280
     0
281
     0
  0
ENDSEC
  0
SECTION
  2
TABLES
  0
TABLE
  2
VPORT
  5
8
330
0
100
AcDbSymbolTable
 70
     1
  0
VPORT
  5
29
330
8
100
AcDbSymbolTableRecord
100
AcDbViewportTableRecord
  2
*Active
 70
     0
 10
0.0
 20
0.0
 11
1.0
 21
1.0
 12
139.7
 22
107.95
 13
0.0
 23
0.0
 14
10.0
 24
10.0
 15
10.0
 25
10.0
 16
0.0
 26
0.0
 36
1.0
 17
0.0
 27
0.0
 37
0.0
 40
215.9
 41
1.2941176471
 42
50.0
 43
0.0
 44
0.0
 50
0.0
 51
0.0
 71
     0
 72
  2000
 73
     1
 74
     3
 75
     0
 76
     0
 77
     0
 78
     0
281
     0
 65
     1
110
0.0
120
0.0
130
0.0
111
1.0
121
0.0
131
0.0
112
0.0
122
1.0
132
0.0
 79
     0
146
0.0
  0
ENDTAB
  0
TABLE
  2
LTYPE
  5
5
330
0
100
AcDbSymbolTable
 70
     6
  0
LTYPE
  5
14
330
5
100
AcDbSymbolTableRecord
100
AcDbLinetypeTableRecord
  2
ByBlock
 70
     0
  3

 72
    65
 73
     0
 40
0.0
  0
LTYPE
  5
15
330
5
100
AcDbSymbolTableRecord
100
AcDbLinetypeTableRecord
  2
ByLayer
 70
     0
  3

 72
    65
 73
     0
 40
0.0
  0
LTYPE
  5
16
330
5
100
AcDbSymbolTableRecord
100
AcDbLinetypeTableRecord
  2
Continuous
 70
     0
  3
Solid line
 72
    65
 73
     0
 40
0.0
  0
LTYPE
  5
6E
330
5
100
AcDbSymbolTableRecord
100
AcDbLinetypeTableRecord
  2
HIDDEN
 70
     0
  3
Hidden __ __ __ __ __ __ __ __ __ __ __ __ __ __
 72
    65
 73
     2
 40
1.905
 49
1.27
 74
     0
 49
-0.635
 74
     0
  0
LTYPE
  5
6F
330
5
100
AcDbSymbolTableRecord
100
AcDbLinetypeTableRecord
  2
PHANTOM
 70
     0
  3
Phantom ______  __  __  ______  __  __  ______
 72
    65
 73
     6
 40
12.7
 49
6.35
 74
     0
 49
-1.27
 74
     0
 49
1.27
 74
     0
 49
-1.27
 74
     0
 49
1.27
 74
     0
 49
-1.27
 74
     0
  0
LTYPE
  5
70
330
5
100
AcDbSymbolTableRecord
100
AcDbLinetypeTableRecord
  2
CENTER
 70
     0
  3
Center ____ _ ____ _ ____ _ ____ _ ____ _ ____
 72
    65
 73
     4
 40
10.16
 49
6.35
 74
     0
 49
-1.27
 74
     0
 49
1.27
 74
     0
 49
-1.27
 74
     0
  0
LTYPE
  5
71
330
5
100
AcDbSymbolTableRecord
100
AcDbLinetypeTableRecord
  2
CENTERX2
 70
     0
  3
Center (2x) ________  __  ________  __  _____
 72
    65
 73
     4
 40
20.32
 49
12.7
 74
     0
 49
-2.54
 74
     0
 49
2.54
 74
     0
 49
-2.54
 74
     0
  0
LTYPE
  5
72
330
5
100
AcDbSymbolTableRecord
100
AcDbLinetypeTableRecord
  2
DOT2
 70
     0
  3
Dot (.5x) ........................................
 72
    65
 73
     2
 40
0.635
 49
0.0
 74
     0
 49
-0.635
 74
     0
  0
ENDTAB
  0
TABLE
  2
LAYER
  5
2
330
0
100
AcDbSymbolTable
 70
    17
  0
LAYER
  5
10
330
2
100
AcDbSymbolTableRecord
100
AcDbLayerTableRecord
  2
0
 70
     0
 62
     7
  6
Continuous
370
    -3
390
F
  0
LAYER
  5
73
330
2
100
AcDbSymbolTableRecord
100
AcDbLayerTableRecord
  2
FORMAT
 70
     0
 62
     7
  6
Continuous
370
    -3
390
F
  0
LAYER
  5
74
330
2
100
AcDbSymbolTableRecord
100
AcDbLayerTableRecord
  2
YARDIMCI_GEOMETRI
 70
     0
 62
    -6
  6
Continuous
290
     0
370
    -3
390
F
  0
LAYER
  5
75
330
2
100
AcDbSymbolTableRecord
100
AcDbLayerTableRecord
  2
SAYFA_CERCEVESI
 70
     0
 62
     7
  6
Continuous
370
    25
390
F
  0
LAYER
  5
76
330
2
100
AcDbSymbolTableRecord
100
AcDbLayerTableRecord
  2
ANTET
 70
     0
 62
     7
  6
Continuous
370
    -3
390
F
  0
LAYER
  5
77
330
2
100
AcDbSymbolTableRecord
100
AcDbLayerTableRecord
  2
OLCU
 70
     0
 62
   150
  6
Continuous
370
    -3
390
F
  0
LAYER
  5
78
330
2
100
AcDbSymbolTableRecord
100
AcDbLayerTableRecord
  2
METIN
 70
     0
 62
    96
  6
Continuous
370
    -3
390
F
  0
LAYER
  5
79
330
2
100
AcDbSymbolTableRecord
100
AcDbLayerTableRecord
  2
BALON
 70
     0
 62
     5
  6
Continuous
370
    -3
390
F
  0
LAYER
  5
7A
330
2
100
AcDbSymbolTableRecord
100
AcDbLayerTableRecord
  2
VURGU
 70
     0
 62
     7
  6
Continuous
370
    -3
390
F
  0
LAYER
  5
7B
330
2
100
AcDbSymbolTableRecord
100
AcDbLayerTableRecord
  2
SILIK
 70
     0
 62
     7
  6
Continuous
370
    -3
390
F
  0
LAYER
  5
7C
330
2
100
AcDbSymbolTableRecord
100
AcDbLayerTableRecord
  2
MODEL
 70
     0
 62
     7
  6
Continuous
370
    -3
390
F
  0
LAYER
  5
7D
330
2
100
AcDbSymbolTableRecord
100
AcDbLayerTableRecord
  2
DETAYLANDıRMA
 70
     0
 62
   190
  6
Continuous
370
    -3
390
F
  0
LAYER
  5
7E
330
2
100
AcDbSymbolTableRecord
100
AcDbLayerTableRecord
  2
TOLERANS
 70
     0
 62
   230
  6
Continuous
370
    -3
390
F
  0
LAYER
  5
7F
330
2
100
AcDbSymbolTableRecord
100
AcDbLayerTableRecord
  2
MERKEZ_CIZGILERI
 70
     0
 62
    30
  6
Continuous
370
    -3
390
F
  0
LAYER
  5
80
330
2
100
AcDbSymbolTableRecord
100
AcDbLayerTableRecord
  2
KESIT-DETAY_CIZGILERI
 70
     0
 62
     7
  6
Continuous
370
    -3
390
F
  0
LAYER
  5
81
330
2
100
AcDbSymbolTableRecord
100
AcDbLayerTableRecord
  2
\U+041E\U+0421\U+0415\U+0412\U+042B\U+0415
 70
     0
 62
     7
  6
Continuous
370
    -3
390
F
  0
LAYER
  5
82
330
2
100
AcDbSymbolTableRecord
100
AcDbLayerTableRecord
  2
\U+0412\U+041E\U+0414\U+042F\U+041D\U+042B\U+0415_\U+0417\U+041D\U+0410\U+041A\U+0418
 70
     0
 62
    11
  6
Continuous
370
    -3
390
F
  0
ENDTAB
  0
TABLE
  2
STYLE
  5
3
330
0
100
AcDbSymbolTable
 70
     1
  0
STYLE
  5
11
330
3
100
AcDbSymbolTableRecord
100
AcDbTextStyleTableRecord
  2
Standard
 70
     0
 40
0.0
 41
1.0
 50
0.0
 71
     0
 42
3.5
  3
txt
  4

  0
ENDTAB
  0
TABLE
  2
VIEW
  5
6
330
0
100
AcDbSymbolTable
 70
     0
  0
ENDTAB
  0
TABLE
  2
UCS
  5
7
330
0
100
AcDbSymbolTable
 70
     0
  0
ENDTAB
  0
TABLE
  2
APPID
  5
9
330
0
100
AcDbSymbolTable
 70
     1
  0
APPID
  5
12
330
9
100
AcDbSymbolTableRecord
100
AcDbRegAppTableRecord
  2
ACAD
 70
     0
  0
ENDTAB
  0
TABLE
  2
DIMSTYLE
  5
A
330
0
100
AcDbSymbolTable
 70
     1
100
AcDbDimStyleTable
  0
DIMSTYLE
105
27
330
A
100
AcDbSymbolTableRecord
100
AcDbDimStyleTableRecord
  2
ISO-25
 70
     0
 41
2.5
 42
0.625
 43
3.75
 44
1.25
 73
     0
 74
     0
 77
     1
 78
     8
140
2.5
141
2.5
143
0.0393700787
147
0.625
171
     3
172
     1
178
     0
271
     2
272
     2
274
     3
278
    44
283
     0
284
     8
340
11
  0
ENDTAB
  0
TABLE
  2
BLOCK_RECORD
  5
1
330
0
100
AcDbSymbolTable
 70
     5
  0
BLOCK_RECORD
  5
1F
330
1
100
AcDbSymbolTableRecord
100
AcDbBlockTableRecord
  2
*Model_Space
340
22
  0
BLOCK_RECORD
  5
1B
330
1
100
AcDbSymbolTableRecord
100
AcDbBlockTableRecord
  2
*Paper_Space
340
1E
  0
BLOCK_RECORD
  5
23
330
1
100
AcDbSymbolTableRecord
100
AcDbBlockTableRecord
  2
*Paper_Space0
340
26
  0
BLOCK_RECORD
  5
C9
330
1
100
AcDbSymbolTableRecord
100
AcDbBlockTableRecord
  2
SW_CENTERMARKSYMBOL_0
340
0
102
{BLKREFS
331
D4
102
}
  0
BLOCK_RECORD
  5
F4
330
1
100
AcDbSymbolTableRecord
100
AcDbBlockTableRecord
  2
SW_CENTERMARKSYMBOL_1
340
0
102
{BLKREFS
331
FF
102
}
  0
BLOCK_RECORD
  5
100
330
1
100
AcDbSymbolTableRecord
100
AcDbBlockTableRecord
  2
SW_CENTERMARKSYMBOL_2
340
0
102
{BLKREFS
331
10B
102
}
  0
BLOCK_RECORD
  5
10C
330
1
100
AcDbSymbolTableRecord
100
AcDbBlockTableRecord
  2
SW_CENTERMARKSYMBOL_3
340
0
102
{BLKREFS
331
117
102
}
  0
ENDTAB
  0
ENDSEC
  0
SECTION
  2
BLOCKS
  0
BLOCK
  5
20
330
1F
100
AcDbEntity
  8
0
100
AcDbBlockBegin
  2
*Model_Space
 70
     0
 10
0.0
 20
0.0
 30
0.0
  3
*Model_Space
  1

  0
ENDBLK
  5
21
330
1F
100
AcDbEntity
  8
0
100
AcDbBlockEnd
  0
BLOCK
  5
1C
330
1B
100
AcDbEntity
 67
     1
  8
0
100
AcDbBlockBegin
  2
*Paper_Space
 70
     0
 10
0.0
 20
0.0
 30
0.0
  3
*Paper_Space
  1

  0
ENDBLK
  5
1D
330
1B
100
AcDbEntity
 67
     1
  8
0
100
AcDbBlockEnd
  0
BLOCK
  5
24
330
23
100
AcDbEntity
  8
0
100
AcDbBlockBegin
  2
*Paper_Space0
 70
     0
 10
0.0
 20
0.0
 30
0.0
  3
*Paper_Space0
  1

  0
ENDBLK
  5
25
330
23
100
AcDbEntity
  8
0
100
AcDbBlockEnd
  0
BLOCK
  5
CA
330
C9
100
AcDbEntity
  8
0
100
AcDbBlockBegin
  2
SW_CENTERMARKSYMBOL_0
 70
     0
 10
0.0
 20
0.0
 30
0.0
  3
SW_CENTERMARKSYMBOL_0
  1

  0
LINE
  5
CC
330
C9
100
AcDbEntity
  8
FORMAT
 62
     0
100
AcDbLine
 10
0.0
 20
0.0
 30
0.0
 11
0.0
 21
2.5
 31
0.0
  0
LINE
  5
CD
330
C9
100
AcDbEntity
  8
FORMAT
 62
     0
100
AcDbLine
 10
0.0
 20
0.0
 30
0.0
 11
-2.5
 21
0.0
 31
0.0
  0
LINE
  5
CE
330
C9
100
AcDbEntity
  8
FORMAT
 62
     0
100
AcDbLine
 10
0.0
 20
0.0
 30
0.0
 11
0.0
 21
-2.5
 31
0.0
  0
LINE
  5
CF
330
C9
100
AcDbEntity
  8
FORMAT
 62
     0
100
AcDbLine
 10
0.0
 20
0.0
 30
0.0
 11
2.5
 21
0.0
 31
0.0
  0
LINE
  5
D0
330
C9
100
AcDbEntity
  8
FORMAT
 62
     0
100
AcDbLine
 10
0.0
 20
5.0
 30
0.0
 11
0.0
 21
28.2
 31
0.0
  0
LINE
  5
D1
330
C9
100
AcDbEntity
  8
FORMAT
 62
     0
100
AcDbLine
 10
-5.0
 20
0.0
 30
0.0
 11
-28.2
 21
0.0
 31
0.0
  0
LINE
  5
D2
330
C9
100
AcDbEntity
  8
FORMAT
 62
     0
100
AcDbLine
 10
0.0
 20
-5.0
 30
0.0
 11
0.0
 21
-28.2
 31
0.0
  0
LINE
  5
D3
330
C9
100
AcDbEntity
  8
FORMAT
 62
     0
100
AcDbLine
 10
5.0
 20
0.0
 30
0.0
 11
28.2
 21
0.0
 31
0.0
  0
ENDBLK
  5
CB
330
C9
100
AcDbEntity
  8
0
100
AcDbBlockEnd
  0
BLOCK
  5
F5
330
F4
100
AcDbEntity
  8
0
100
AcDbBlockBegin
  2
SW_CENTERMARKSYMBOL_1
 70
     0
 10
0.0
 20
0.0
 30
0.0
  3
SW_CENTERMARKSYMBOL_1
  1

  0
LINE
  5
F7
330
F4
100
AcDbEntity
  8
FORMAT
 62
     0
100
AcDbLine
 10
0.0
 20
0.0
 30
0.0
 11
0.0
 21
2.5
 31
0.0
  0
LINE
  5
F8
330
F4
100
AcDbEntity
  8
FORMAT
 62
     0
100
AcDbLine
 10
0.0
 20
0.0
 30
0.0
 11
-2.5
 21
0.0
 31
0.0
  0
LINE
  5
F9
330
F4
100
AcDbEntity
  8
FORMAT
 62
     0
100
AcDbLine
 10
0.0
 20
0.0
 30
0.0
 11
0.0
 21
-2.5
 31
0.0
  0
LINE
  5
FA
330
F4
100
AcDbEntity
  8
FORMAT
 62
     0
100
AcDbLine
 10
0.0
 20
0.0
 30
0.0
 11
2.5
 21
0.0
 31
0.0
  0
LINE
  5
FB
330
F4
100
AcDbEntity
  8
FORMAT
 62
     0
100
AcDbLine
 10
0.0
 20
5.0
 30
0.0
 11
0.0
 21
34.0
 31
0.0
  0
LINE
  5
FC
330
F4
100
AcDbEntity
  8
FORMAT
 62
     0
100
AcDbLine
 10
-5.0
 20
0.0
 30
0.0
 11
-34.0
 21
0.0
 31
0.0
  0
LINE
  5
FD
330
F4
100
AcDbEntity
  8
FORMAT
 62
     0
100
AcDbLine
 10
0.0
 20
-5.0
 30
0.0
 11
0.0
 21
-34.0
 31
0.0
  0
LINE
  5
FE
330
F4
100
AcDbEntity
  8
FORMAT
 62
     0
100
AcDbLine
 10
5.0
 20
0.0
 30
0.0
 11
34.0
 21
0.0
 31
0.0
  0
ENDBLK
  5
F6
330
F4
100
AcDbEntity
  8
0
100
AcDbBlockEnd
  0
BLOCK
  5
101
330
100
100
AcDbEntity
  8
0
100
AcDbBlockBegin
  2
SW_CENTERMARKSYMBOL_2
 70
     0
 10
0.0
 20
0.0
 30
0.0
  3
SW_CENTERMARKSYMBOL_2
  1

  0
LINE
  5
103
330
100
100
AcDbEntity
  8
FORMAT
 62
     0
100
AcDbLine
 10
0.0
 20
0.0
 30
0.0
 11
0.0
 21
2.5
 31
0.0
  0
LINE
  5
104
330
100
100
AcDbEntity
  8
FORMAT
 62
     0
100
AcDbLine
 10
0.0
 20
0.0
 30
0.0
 11
-2.5
 21
0.0
 31
0.0
  0
LINE
  5
105
330
100
100
AcDbEntity
  8
FORMAT
 62
     0
100
AcDbLine
 10
0.0
 20
0.0
 30
0.0
 11
0.0
 21
-2.5
 31
0.0
  0
LINE
  5
106
330
100
100
AcDbEntity
  8
FORMAT
 62
     0
100
AcDbLine
 10
0.0
 20
0.0
 30
0.0
 11
2.5
 21
0.0
 31
0.0
  0
LINE
  5
107
330
100
100
AcDbEntity
  8
FORMAT
 62
     0
100
AcDbLine
 10
0.0
 20
5.0
 30
0.0
 11
0.0
 21
9.5
 31
0.0
  0
LINE
  5
108
330
100
100
AcDbEntity
  8
FORMAT
 62
     0
100
AcDbLine
 10
-5.0
 20
0.0
 30
0.0
 11
-9.5
 21
0.0
 31
0.0
  0
LINE
  5
109
330
100
100
AcDbEntity
  8
FORMAT
 62
     0
100
AcDbLine
 10
0.0
 20
-5.0
 30
0.0
 11
0.0
 21
-9.5
 31
0.0
  0
LINE
  5
10A
330
100
100
AcDbEntity
  8
FORMAT
 62
     0
100
AcDbLine
 10
5.0
 20
0.0
 30
0.0
 11
9.5
 21
0.0
 31
0.0
  0
ENDBLK
  5
102
330
100
100
AcDbEntity
  8
0
100
AcDbBlockEnd
  0
BLOCK
  5
10D
330
10C
100
AcDbEntity
  8
0
100
AcDbBlockBegin
  2
SW_CENTERMARKSYMBOL_3
 70
     0
 10
0.0
 20
0.0
 30
0.0
  3
SW_CENTERMARKSYMBOL_3
  1

  0
LINE
  5
10F
330
10C
100
AcDbEntity
  8
FORMAT
 62
     0
100
AcDbLine
 10
0.0
 20
0.0
 30
0.0
 11
0.0
 21
2.5
 31
0.0
  0
LINE
  5
110
330
10C
100
AcDbEntity
  8
FORMAT
 62
     0
100
AcDbLine
 10
0.0
 20
0.0
 30
0.0
 11
-2.5
 21
0.0
 31
0.0
  0
LINE
  5
111
330
10C
100
AcDbEntity
  8
FORMAT
 62
     0
100
AcDbLine
 10
0.0
 20
0.0
 30
0.0
 11
0.0
 21
-2.5
 31
0.0
  0
LINE
  5
112
330
10C
100
AcDbEntity
  8
FORMAT
 62
     0
100
AcDbLine
 10
0.0
 20
0.0
 30
0.0
 11
2.5
 21
0.0
 31
0.0
  0
LINE
  5
113
330
10C
100
AcDbEntity
  8
FORMAT
 62
     0
100
AcDbLine
 10
0.0
 20
5.0
 30
0.0
 11
0.0
 21
9.5
 31
0.0
  0
LINE
  5
114
330
10C
100
AcDbEntity
  8
FORMAT
 62
     0
100
AcDbLine
 10
-5.0
 20
0.0
 30
0.0
 11
-9.5
 21
0.0
 31
0.0
  0
LINE
  5
115
330
10C
100
AcDbEntity
  8
FORMAT
 62
     0
100
AcDbLine
 10
0.0
 20
-5.0
 30
0.0
 11
0.0
 21
-9.5
 31
0.0
  0
LINE
  5
116
330
10C
100
AcDbEntity
  8
FORMAT
 62
     0
100
AcDbLine
 10
5.0
 20
0.0
 30
0.0
 11
9.5
 21
0.0
 31
0.0
  0
ENDBLK
  5
10E
330
10C
100
AcDbEntity
  8
0
100
AcDbBlockEnd
  0
ENDSEC
  0
SECTION
  2
ENTITIES
  0
LINE
  5
83
330
1F
100
AcDbEntity
  8
0
  6
Continuous
 62
     7
370
    25
100
AcDbLine
 10
168.505399775
 20
-72.9506
 30
0.0
 11
218.505399775
 21
-72.9506
 31
0.0
  0
LINE
  5
84
330
1F
100
AcDbEntity
  8
0
  6
Continuous
 62
     7
370
    25
100
AcDbLine
 10
58.505399775
 20
-72.9506
 30
0.0
 11
108.505399775
 21
-72.9506
 31
0.0
  0
LINE
  5
85
330
1F
100
AcDbEntity
  8
0
  6
Continuous
 62
     7
370
    25
100
AcDbLine
 10
61.5949470868
 20
221.0494
 30
0.0
 11
58.505399775
 21
221.0494
 31
0.0
  0
LINE
  5
86
330
1F
100
AcDbEntity
  8
0
  6
Continuous
 62
     7
370
    25
100
AcDbLine
 10
107.1135090593
 20
221.0494
 30
0.0
 11
75.4949851437
 21
221.0494
 31
0.0
  0
LINE
  5
87
330
1F
100
AcDbEntity
  8
0
  6
Continuous
 62
     7
370
    25
100
AcDbLine
 10
201.5949470868
 20
221.0494
 30
0.0
 11
169.950624294
 21
221.0494
 31
0.0
  0
LINE
  5
88
330
1F
100
AcDbEntity
  8
0
  6
Continuous
 62
     7
370
    25
100
AcDbLine
 10
218.505399775
 20
221.0494
 30
0.0
 11
215.4949851437
 21
221.0494
 31
0.0
  0
LINE
  5
89
330
1F
100
AcDbEntity
  8
0
  6
Continuous
 62
     7
370
    25
100
AcDbLine
 10
107.005399775
 20
289.0494
 30
0.0
 11
107.005399775
 21
221.0262890275
 31
0.0
  0
LINE
  5
8A
330
1F
100
AcDbEntity
  8
0
  6
Continuous
 62
     7
370
    25
100
AcDbLine
 10
170.005399775
 20
221.0377437325
 30
0.0
 11
170.005399775
 21
289.0494
 31
0.0
  0
LINE
  5
8B
330
1F
100
AcDbEntity
  8
0
  6
Continuous
 62
     7
370
    25
100
AcDbLine
 10
61.505399775
 20
236.0494
 30
0.0
 11
61.505399775
 21
221.0451868008
 31
0.0
  0
LINE
  5
8C
330
1F
100
AcDbEntity
  8
0
  6
Continuous
 62
     7
370
    25
100
AcDbLine
 10
75.505399775
 20
221.0489291206
 30
0.0
 11
75.505399775
 21
236.0494
 31
0.0
  0
LINE
  5
8D
330
1F
100
AcDbEntity
  8
0
  6
Continuous
 62
     7
370
    25
100
AcDbLine
 10
201.505399775
 20
236.0494
 30
0.0
 11
201.505399775
 21
221.0451868008
 31
0.0
  0
LINE
  5
8E
330
1F
100
AcDbEntity
  8
0
  6
Continuous
 62
     7
370
    25
100
AcDbLine
 10
215.505399775
 20
221.0489291206
 30
0.0
 11
215.505399775
 21
236.0494
 31
0.0
  0
LINE
  5
8F
330
1F
100
AcDbEntity
  8
0
  6
Continuous
 62
     7
370
    25
100
AcDbLine
 10
218.505399775
 20
76.0494
 30
0.0
 11
58.505399775
 21
76.0494
 31
0.0
  0
LINE
  5
90
330
1F
100
AcDbEntity
  8
0
  6
Continuous
 62
     7
370
    25
100
AcDbLine
 10
58.505399775
 20
83.0494
 30
0.0
 11
58.505399775
 21
76.0494
 31
0.0
  0
LINE
  5
91
330
1F
100
AcDbEntity
  8
0
  6
Continuous
 62
     7
370
    25
100
AcDbLine
 10
218.505399775
 20
83.0494
 30
0.0
 11
58.505399775
 21
83.0494
 31
0.0
  0
LINE
  5
92
330
1F
100
AcDbEntity
  8
0
  6
Continuous
 62
     7
370
    25
100
AcDbLine
 10
218.505399775
 20
83.0494
 30
0.0
 11
218.505399775
 21
76.0494
 31
0.0
  0
LINE
  5
93
330
1F
100
AcDbEntity
  8
0
  6
Continuous
 62
     7
370
    25
100
AcDbLine
 10
58.505399775
 20
72.0494
 30
0.0
 11
58.505399775
 21
65.0494
 31
0.0
  0
LINE
  5
94
330
1F
100
AcDbEntity
  8
0
  6
Continuous
 62
     7
370
    25
100
AcDbLine
 10
218.505399775
 20
72.0494
 30
0.0
 11
58.505399775
 21
72.0494
 31
0.0
  0
LINE
  5
95
330
1F
100
AcDbEntity
  8
0
  6
Continuous
 62
     7
370
    25
100
AcDbLine
 10
218.505399775
 20
72.0494
 30
0.0
 11
218.505399775
 21
65.0494
 31
0.0
  0
LINE
  5
96
330
1F
100
AcDbEntity
  8
0
  6
Continuous
 62
     7
370
    25
100
AcDbLine
 10
218.505399775
 20
65.0494
 30
0.0
 11
58.505399775
 21
65.0494
 31
0.0
  0
SPLINE
  5
97
330
1F
100
AcDbEntity
  8
0
  6
Continuous
 62
     7
370
    25
100
AcDbSpline
210
0.0
220
0.0
230
1.0
 70
     8
 71
     3
 72
    12
 73
     8
 74
     0
 42
0.00000001
 43
0.00000001
 40
0.0
 40
0.0
 40
0.0
 40
0.0
 40
0.2146720642558562
 40
0.4293382299210152
 40
0.6441574451141947
 40
0.8590765085376306
 40
1.0
 40
1.0
 40
1.0
 40
1.0
 10
68.50539977502821
 20
220.8826387438211
 30
0.0
 10
67.7191958394999
 20
220.8864094632544
 30
0.0
 10
66.14680957113877
 20
220.8939507985121
 30
0.0
 10
64.04609998659532
 20
220.9469425034404
 30
0.0
 10
62.47778128494051
 20
221.0043046897388
 30
0.0
 10
61.58802489409046
 20
221.0454207507229
 30
0.0
 10
61.59298338665227
 20
221.045244703161
 30
0.0
 10
61.59494708681854
 20
221.0451749834584
 30
0.0
  0
SPLINE
  5
98
330
1F
100
AcDbEntity
  8
0
  6
Continuous
 62
     7
370
    25
100
AcDbSpline
210
0.0
220
0.0
230
1.0
 70
     8
 71
     3
 72
    13
 73
     9
 74
     0
 42
0.00000001
 43
0.00000001
 40
0.0
 40
0.0
 40
0.0
 40
0.0
 40
0.0058183614310057
 40
0.2202639491412827
 40
0.434709887666706
 40
0.6493670437394435
 40
0.8641173752720068
 40
0.9999999999999999
 40
0.9999999999999999
 40
0.9999999999999999
 40
0.9999999999999999
 10
75.49498514370642
 20
221.0489169392851
 30
0.0
 10
75.49844851492267
 20
221.0490775453213
 30
0.0
 10
75.62956031168522
 20
221.0551575594633
 30
0.0
 10
75.1582258337059
 20
221.0326037414561
 30
0.0
 10
74.05380724722825
 20
220.9849432647016
 30
0.0
 10
72.23328114675262
 20
220.9254588337905
 30
0.0
 10
70.28427578786454
 20
220.8880824737565
 30
0.0
 10
69.00223554172395
 20
220.8841591644218
 30
0.0
 10
68.50539977502821
 20
220.8826387438211
 30
0.0
  0
SPLINE
  5
99
330
1F
100
AcDbEntity
  8
0
  6
Continuous
 62
     7
370
    25
100
AcDbSpline
210
0.0
220
0.0
230
1.0
 70
     8
 71
     3
 72
    17
 73
    13
 74
     0
 42
0.00000001
 43
0.00000001
 40
0.0
 40
0.0
 40
0.0
 40
0.0
 40
0.1041664071181336
 40
0.2113982385070534
 40
0.3155522857894603
 40
0.4226455206248872
 40
0.5283093248747288
 40
0.6369739216640518
 40
0.743624142873195
 40
0.8534572447179669
 40
0.9584830527179491
 40
1.0
 40
1.0
 40
1.0
 40
1.0
 10
138.5053997750282
 20
217.634740477362
 30
0.0
 10
136.7823366463678
 20
217.6528537398887
 30
0.0
 10
133.2855038351701
 20
217.6896133046821
 30
0.0
 10
128.2139758242197
 20
217.9769466754312
 30
0.0
 10
123.3923138017394
 20
218.4030487937472
 30
0.0
 10
119.0153194800569
 20
218.9322345580871
 30
0.0
 10
115.1235500235362
 20
219.5117757131599
 30
0.0
 10
111.8942180968235
 20
220.0707515636804
 30
0.0
 10
109.364919142592
 20
220.5572920791856
 30
0.0
 10
107.749080675521
 20
220.8902218737391
 30
0.0
 10
106.9871316042613
 20
221.0532923492959
 30
0.0
 10
107.0856093760094
 20
221.0322436485874
 30
0.0
 10
107.1135090592811
 20
221.0262803527836
 30
0.0
  0
SPLINE
  5
9A
330
1F
100
AcDbEntity
  8
0
  6
Continuous
 62
     7
370
    25
100
AcDbSpline
210
0.0
220
0.0
230
1.0
 70
     8
 71
     3
 72
    17
 73
    13
 74
     0
 42
0.00000001
 43
0.00000001
 40
0.0
 40
0.0
 40
0.0
 40
0.0
 40
0.087812477507583
 40
0.1946394041797267
 40
0.2981915652491705
 40
0.4046433472550304
 40
0.5100929034357957
 40
0.6185242623062819
 40
0.7252053470786999
 40
0.8350575710150118
 40
0.9168030776477425
 40
1.0
 40
1.0
 40
1.0
 40
1.0
 10
169.9506242940226
 20
221.037708004588
 30
0.0
 10
169.9143307651306
 20
221.0298616725594
 30
0.0
 10
169.8338848986704
 20
221.0124700052884
 30
0.0
 10
168.6757843203985
 20
220.7675050030433
 30
0.0
 10
166.7105410472026
 20
220.3728622042055
 30
0.0
 10
163.9689181783332
 20
219.8643889143982
 30
0.0
 10
160.490102284429
 20
219.291888272896
 30
0.0
 10
156.3905171236558
 20
218.7225465060901
 30
0.0
 10
151.7201718056033
 20
218.213678572675
 30
0.0
 10
147.0706304162757
 20
217.8671385085176
 30
0.0
 10
142.6085651344871
 20
217.6690288748505
 30
0.0
 10
139.8811216344177
 20
217.6462367963782
 30
0.0
 10
138.5053997750282
 20
217.634740477362
 30
0.0
  0
SPLINE
  5
9B
330
1F
100
AcDbEntity
  8
0
  6
Continuous
 62
     7
370
    25
100
AcDbSpline
210
0.0
220
0.0
230
1.0
 70
     8
 71
     3
 72
    12
 73
     8
 74
     0
 42
0.00000001
 43
0.00000001
 40
0.0
 40
0.0
 40
0.0
 40
0.0
 40
0.2146720642558562
 40
0.4293382299210152
 40
0.6441574451141947
 40
0.8590765085376306
 40
1.0
 40
1.0
 40
1.0
 40
1.0
 10
208.5053997750282
 20
220.8826387438211
 30
0.0
 10
207.7191958394999
 20
220.8864094632544
 30
0.0
 10
206.1468095711388
 20
220.8939507985121
 30
0.0
 10
204.0460999865954
 20
220.9469425034404
 30
0.0
 10
202.4777812849405
 20
221.0043046897388
 30
0.0
 10
201.5880248940905
 20
221.0454207507229
 30
0.0
 10
201.5929833866523
 20
221.045244703161
 30
0.0
 10
201.5949470868185
 20
221.0451749834584
 30
0.0
  0
SPLINE
  5
9C
330
1F
100
AcDbEntity
  8
0
  6
Continuous
 62
     7
370
    25
100
AcDbSpline
210
0.0
220
0.0
230
1.0
 70
     8
 71
     3
 72
    13
 73
     9
 74
     0
 42
0.00000001
 43
0.00000001
 40
0.0
 40
0.0
 40
0.0
 40
0.0
 40
0.0058183614310057
 40
0.2202639491412827
 40
0.434709887666706
 40
0.6493670437394435
 40
0.8641173752720068
 40
0.9999999999999999
 40
0.9999999999999999
 40
0.9999999999999999
 40
0.9999999999999999
 10
215.4949851437064
 20
221.0489169392851
 30
0.0
 10
215.4984485149227
 20
221.0490775453213
 30
0.0
 10
215.629560311685
 20
221.0551575594633
 30
0.0
 10
215.158225833706
 20
221.0326037414561
 30
0.0
 10
214.0538072472282
 20
220.9849432647016
 30
0.0
 10
212.2332811467527
 20
220.9254588337905
 30
0.0
 10
210.2842757878646
 20
220.8880824737565
 30
0.0
 10
209.002235541724
 20
220.8841591644218
 30
0.0
 10
208.5053997750282
 20
220.8826387438211
 30
0.0
  0
LINE
  5
9D
330
1F
100
AcDbEntity
  8
0
  6
Continuous
 62
     7
370
    25
100
AcDbLine
 10
108.505399775
 20
64.0494
 30
0.0
 11
168.505399775
 21
64.0494
 31
0.0
  0
LINE
  5
9E
330
1F
100
AcDbEntity
  8
0
  6
Continuous
 62
     7
370
    25
100
AcDbLine
 10
108.505399775
 20
-72.9506
 30
0.0
 11
108.505399775
 21
64.0494
 31
0.0
  0
LINE
  5
9F
330
1F
100
AcDbEntity
  8
0
  6
Continuous
 62
     7
370
    25
100
AcDbLine
 10
168.505399775
 20
-67.8800385152
 30
0.0
 11
108.505399775
 21
-67.8800385152
 31
0.0
  0
LINE
  5
A0
330
1F
100
AcDbEntity
  8
0
  6
Continuous
 62
     7
370
    25
100
AcDbLine
 10
168.505399775
 20
64.0494
 30
0.0
 11
168.505399775
 21
-72.9506
 31
0.0
  0
LINE
  5
A1
330
1F
100
AcDbEntity
  8
0
  6
Continuous
 62
     7
370
    25
100
AcDbLine
 10
58.505399775
 20
65.0494
 30
0.0
 11
58.505399775
 21
-72.9506
 31
0.0
  0
LINE
  5
A2
330
1F
100
AcDbEntity
  8
0
  6
Continuous
 62
     7
370
    25
100
AcDbLine
 10
58.505399775
 20
221.0494
 30
0.0
 11
58.505399775
 21
83.0494
 31
0.0
  0
LINE
  5
A3
330
1F
100
AcDbEntity
  8
0
  6
Continuous
 62
     7
370
    25
100
AcDbLine
 10
218.505399775
 20
65.0494
 30
0.0
 11
218.505399775
 21
-72.9506
 31
0.0
  0
LINE
  5
A4
330
1F
100
AcDbEntity
  8
0
  6
Continuous
 62
     7
370
    25
100
AcDbLine
 10
218.505399775
 20
221.0494
 30
0.0
 11
218.505399775
 21
83.0494
 31
0.0
  0
LINE
  5
A5
330
1F
100
AcDbEntity
  8
0
  6
Continuous
 62
     7
370
    25
100
AcDbLine
 10
108.505399775
 20
-60.6167260942
 30
0.0
 11
168.505399775
 21
-60.6167260942
 31
0.0
  0
LINE
  5
A6
330
1F
100
AcDbEntity
  8
0
  6
Continuous
 62
     7
370
    25
100
AcDbLine
 10
58.505399775
 20
76.0494
 30
0.0
 11
58.505399775
 21
72.0494
 31
0.0
  0
LINE
  5
A7
330
1F
100
AcDbEntity
  8
0
  6
Continuous
 62
     7
370
    25
100
AcDbLine
 10
218.505399775
 20
76.0494
 30
0.0
 11
218.505399775
 21
72.0494
 31
0.0
  0
LINE
  5
A8
330
1F
100
AcDbEntity
  8
0
  6
Continuous
 62
     7
370
    25
100
AcDbLine
 10
138.505399775
 20
289.0494
 30
0.0
 11
170.005399775
 21
289.0494
 31
0.0
  0
LINE
  5
A9
330
1F
100
AcDbEntity
  8
0
  6
Continuous
 62
     7
370
    25
100
AcDbLine
 10
107.005399775
 20
289.0494
 30
0.0
 11
138.505399775
 21
289.0494
 31
0.0
  0
LINE
  5
AA
330
1F
100
AcDbEntity
  8
0
  6
Continuous
 62
     7
370
    25
100
AcDbLine
 10
68.505399775
 20
236.0494
 30
0.0
 11
75.505399775
 21
236.0494
 31
0.0
  0
LINE
  5
AB
330
1F
100
AcDbEntity
  8
0
  6
Continuous
 62
     7
370
    25
100
AcDbLine
 10
61.505399775
 20
236.0494
 30
0.0
 11
68.505399775
 21
236.0494
 31
0.0
  0
LINE
  5
AC
330
1F
100
AcDbEntity
  8
0
  6
Continuous
 62
     7
370
    25
100
AcDbLine
 10
208.505399775
 20
236.0494
 30
0.0
 11
201.505399775
 21
236.0494
 31
0.0
  0
LINE
  5
AD
330
1F
100
AcDbEntity
  8
0
  6
Continuous
 62
     7
370
    25
100
AcDbLine
 10
215.505399775
 20
236.0494
 30
0.0
 11
208.505399775
 21
236.0494
 31
0.0
  0
LINE
  5
AE
330
1F
100
AcDbEntity
  8
0
  6
Continuous
 62
     7
370
    25
100
AcDbLine
 10
458.3234346524
 20
236.0494
 30
0.0
 11
458.3234346524
 21
220.8866754256
 31
0.0
  0
LINE
  5
AF
330
1F
100
AcDbEntity
  8
0
  6
Continuous
 62
     7
370
    25
100
AcDbLine
 10
472.3234346524
 20
220.8826387438
 30
0.0
 11
472.3234346524
 21
236.0494
 31
0.0
  0
LINE
  5
B0
330
1F
100
AcDbEntity
  8
0
  6
Continuous
 62
     7
370
    25
100
AcDbLine
 10
433.8234346524
 20
289.0494
 30
0.0
 11
433.8234346524
 21
217.6530663945
 31
0.0
  0
LINE
  5
B1
330
1F
100
AcDbEntity
  8
0
  6
Continuous
 62
     7
370
    25
100
AcDbLine
 10
496.8234346524
 20
217.6347404774
 30
0.0
 11
496.8234346524
 21
289.0494
 31
0.0
  0
LINE
  5
B2
330
1F
100
AcDbEntity
  8
0
  6
Continuous
 62
     7
370
    25
100
AcDbLine
 10
612.0476657801
 20
83.0494
 30
0.0
 11
627.0476657801
 21
83.0494
 31
0.0
  0
LINE
  5
B3
330
1F
100
AcDbEntity
  8
0
  6
Continuous
 62
     7
370
    25
100
AcDbLine
 10
627.0476657801
 20
83.0494
 30
0.0
 11
627.0476657801
 21
76.0494
 31
0.0
  0
LINE
  5
B4
330
1F
100
AcDbEntity
  8
0
  6
Continuous
 62
     7
370
    25
100
AcDbLine
 10
627.0476657801
 20
76.0494
 30
0.0
 11
605.3091482092
 21
76.0494
 31
0.0
  0
ARC
  5
B5
330
1F
100
AcDbEntity
  8
0
  6
Continuous
 62
     7
370
    25
100
AcDbCircle
 10
465.3234346524
 20
74.0494
 30
0.0
 40
140.0
100
AcDbArc
 50
0.818538979
 51
359.181461021
  0
LINE
  5
B6
330
1F
100
AcDbEntity
  8
0
  6
Continuous
 62
     7
370
    25
100
AcDbLine
 10
605.3091482092
 20
72.0494
 30
0.0
 11
627.0476657801
 21
72.0494
 31
0.0
  0
LINE
  5
B7
330
1F
100
AcDbEntity
  8
0
  6
Continuous
 62
     7
370
    25
100
AcDbLine
 10
627.0476657801
 20
72.0494
 30
0.0
 11
627.0476657801
 21
65.0494
 31
0.0
  0
LINE
  5
B8
330
1F
100
AcDbEntity
  8
0
  6
Continuous
 62
     7
370
    25
100
AcDbLine
 10
627.0476657801
 20
65.0494
 30
0.0
 11
612.0476657801
 21
65.0494
 31
0.0
  0
ARC
  5
B9
330
1F
100
AcDbEntity
  8
0
  6
Continuous
 62
     7
370
    25
100
AcDbCircle
 10
465.3234346524
 20
74.0494
 30
0.0
 40
147.0000000000001
100
AcDbArc
 50
3.5101001005
 51
356.4898998995
  0
LINE
  5
BA
330
1F
100
AcDbEntity
  8
0
  6
Continuous
 62
     7
370
    25
100
AcDbLine
 10
458.3234346524
 20
236.0494
 30
0.0
 11
472.3234346524
 21
236.0494
 31
0.0
  0
LINE
  5
BB
330
1F
100
AcDbEntity
  8
0
  6
Continuous
 62
     7
370
    25
100
AcDbLine
 10
433.8234346524
 20
289.0494
 30
0.0
 11
496.8234346524
 21
289.0494
 31
0.0
  0
LINE
  5
BC
330
1F
100
AcDbEntity
  8
0
  6
Continuous
 62
     7
370
    25
100
AcDbLine
 10
58.505399775
 20
377.2422067321
 30
0.0
 11
218.505399775
 21
377.2422067321
 31
0.0
  0
LINE
  5
BD
330
1F
100
AcDbEntity
  8
0
  6
Continuous
 62
     7
370
    25
100
AcDbLine
 10
218.505399775
 20
670.9664378598
 30
0.0
 11
58.505399775
 21
670.9664378598
 31
0.0
  0
LINE
  5
BE
330
1F
100
AcDbEntity
  8
0
  6
Continuous
 62
     7
370
    25
100
AcDbLine
 10
218.505399775
 20
670.9664378598
 30
0.0
 11
218.505399775
 21
377.2422067321
 31
0.0
  0
LINE
  5
BF
330
1F
100
AcDbEntity
  8
0
  6
Continuous
 62
     7
370
    25
100
AcDbLine
 10
58.505399775
 20
670.9664378598
 30
0.0
 11
58.505399775
 21
377.2422067321
 31
0.0
  0
LINE
  5
C0
330
1F
100
AcDbEntity
  8
0
  6
Continuous
 62
     7
370
    25
100
AcDbLine
 10
108.505399775
 20
670.9016762525
 30
0.0
 11
168.505399775
 21
670.9016762525
 31
0.0
  0
LINE
  5
C1
330
1F
100
AcDbEntity
  8
0
  6
Continuous
 62
     7
370
    25
100
AcDbLine
 10
108.505399775
 20
485.9664378598
 30
0.0
 11
108.505399775
 21
670.9016762525
 31
0.0
  0
LINE
  5
C2
330
1F
100
AcDbEntity
  8
0
  6
Continuous
 62
     7
370
    25
100
AcDbLine
 10
168.505399775
 20
485.9664378598
 30
0.0
 11
108.505399775
 21
485.9664378598
 31
0.0
  0
LINE
  5
C3
330
1F
100
AcDbEntity
  8
0
  6
Continuous
 62
     7
370
    25
100
AcDbLine
 10
168.505399775
 20
670.9016762525
 30
0.0
 11
168.505399775
 21
485.9664378598
 31
0.0
  0
SPLINE
  5
C4
330
1F
100
AcDbEntity
  8
0
  6
Continuous
 62
     7
370
    25
100
AcDbSpline
210
0.0
220
0.0
230
1.0
 70
    11
 71
     3
 72
   124
 73
   120
 74
     0
 42
0.00000001
 43
0.00000001
 40
0.0
 40
0.0
 40
0.0
 40
0.0
 40
0.0312499999999999
 40
0.0312499999999999
 40
0.0468749999999999
 40
0.0468749999999999
 40
0.0624999999999999
 40
0.0624999999999999
 40
0.0937499999999998
 40
0.0937499999999998
 40
0.1015624999999998
 40
0.1015624999999998
 40
0.1093749999999998
 40
0.1093749999999998
 40
0.1249999999999998
 40
0.1249999999999998
 40
0.1562499999999998
 40
0.1562499999999998
 40
0.1640624999999998
 40
0.1640624999999998
 40
0.1718749999999998
 40
0.1718749999999998
 40
0.1874999999999998
 40
0.1874999999999998
 40
0.2031249999999998
 40
0.2031249999999998
 40
0.2109374999999999
 40
0.2109374999999999
 40
0.2187499999999999
 40
0.2187499999999999
 40
0.2500000000000001
 40
0.2500000000000001
 40
0.2656250000000001
 40
0.2656250000000001
 40
0.2812500000000002
 40
0.2812500000000002
 40
0.3125000000000004
 40
0.3125000000000004
 40
0.3281250000000004
 40
0.3281250000000004
 40
0.3437500000000006
 40
0.3437500000000006
 40
0.3593750000000006
 40
0.3593750000000006
 40
0.3671875000000006
 40
0.3671875000000006
 40
0.3750000000000006
 40
0.3750000000000006
 40
0.4062500000000004
 40
0.4062500000000004
 40
0.4218750000000003
 40
0.4218750000000003
 40
0.4296875000000003
 40
0.4296875000000003
 40
0.4375000000000003
 40
0.4375000000000003
 40
0.4687500000000002
 40
0.4687500000000002
 40
0.4765625000000002
 40
0.4765625000000002
 40
0.4843750000000002
 40
0.4843750000000002
 40
0.5000000000000001
 40
0.5000000000000001
 40
0.53125
 40
0.53125
 40
0.5390625
 40
0.5390625
 40
0.546875
 40
0.546875
 40
0.5625
 40
0.5625
 40
0.578125
 40
0.578125
 40
0.5937499999999999
 40
0.5937499999999999
 40
0.6249999999999999
 40
0.6249999999999999
 40
0.6406249999999998
 40
0.6406249999999998
 40
0.6562499999999998
 40
0.6562499999999998
 40
0.6874999999999999
 40
0.6874999999999999
 40
0.7031249999999998
 40
0.7031249999999998
 40
0.7187499999999998
 40
0.7187499999999998
 40
0.7343749999999998
 40
0.7343749999999998
 40
0.7421874999999998
 40
0.7421874999999998
 40
0.7499999999999997
 40
0.7499999999999997
 40
0.7812499999999997
 40
0.7812499999999997
 40
0.7968749999999997
 40
0.7968749999999997
 40
0.8046874999999997
 40
0.8046874999999997
 40
0.8124999999999996
 40
0.8124999999999996
 40
0.8437499999999997
 40
0.8437499999999997
 40
0.8593749999999997
 40
0.8593749999999997
 40
0.8749999999999996
 40
0.8749999999999996
 40
0.9062499999999997
 40
0.9062499999999997
 40
0.9218749999999997
 40
0.9218749999999997
 40
0.9374999999999998
 40
0.9374999999999998
 40
0.9531249999999999
 40
0.9531249999999999
 40
0.96875
 40
0.96875
 40
1.0
 40
1.0
 40
1.0
 40
1.0
 10
138.5053997750282
 20
498.5422067321426
 30
0.0
 10
140.2071377905515
 20
498.5422067321427
 30
0.0
 10
141.8797007366558
 20
498.7095535647211
 30
0.0
 10
144.3467458632733
 20
499.200806071153
 30
0.0
 10
145.1620768846901
 20
499.4048964898425
 30
0.0
 10
146.7784285508286
 20
499.8955370401839
 30
0.0
 10
147.580833970666
 20
500.1832092878595
 30
0.0
 10
149.913652195885
 20
501.1515759015326
 30
0.0
 10
151.3883136337632
 20
501.9411501473926
 30
0.0
 10
153.1325930842986
 20
503.1066619547724
 30
0.0
 10
153.4764514013505
 20
503.3487740534545
 30
0.0
 10
154.1540295527309
 20
503.8513190129364
 30
0.0
 10
154.4885830401053
 20
504.1124745103698
 30
0.0
 10
155.4674901910921
 20
504.9163029980721
 30
0.0
 10
156.0889199245497
 20
505.4803015723073
 30
0.0
 10
157.8626076837946
 20
507.2544003323177
 30
0.0
 10
158.9251548195921
 20
508.5457933571477
 30
0.0
 10
160.0994945473947
 20
510.3007780833465
 30
0.0
 10
160.3269054692332
 20
510.6594941251449
 30
0.0
 10
160.7612124423387
 20
511.3834744834293
 30
0.0
 10
160.9687209840525
 20
511.7495909600676
 30
0.0
 10
161.5627952612073
 20
512.8601371633899
 30
0.0
 10
161.9209779659017
 20
513.6167349832438
 30
0.0
 10
162.5624668247952
 20
515.1621474337367
 30
0.0
 10
162.8457740080954
 20
515.9509614421279
 30
0.0
 10
163.2135617175579
 20
517.1588547722324
 30
0.0
 10
163.3266115130649
 20
517.5656052172081
 30
0.0
 10
163.5332290637544
 20
518.3875230491367
 30
0.0
 10
163.6267689072875
 20
518.8029256352157
 30
0.0
 10
164.0402982562648
 20
520.8773271737077
 30
0.0
 10
164.2044162228929
 20
522.5472022153939
 30
0.0
 10
164.2058850033208
 20
525.0672404921609
 30
0.0
 10
164.1652979710969
 20
525.9098084540359
 30
0.0
 10
163.999222458971
 20
527.6002233930836
 30
0.0
 10
163.8743713626365
 20
528.4389217485036
 30
0.0
 10
163.3814627640198
 20
530.9130414275483
 30
0.0
 10
162.8952395478067
 20
532.5168283489917
 30
0.0
 10
161.9274836092501
 20
534.8538465971042
 30
0.0
 10
161.5630179253778
 20
535.6240048276273
 30
0.0
 10
160.7685048806665
 20
537.1089558829194
 30
0.0
 10
160.3372528646213
 20
537.8274635416179
 30
0.0
 10
159.4081179844312
 20
539.2176994907554
 30
0.0
 10
158.91023324544
 20
539.8894261164836
 30
0.0
 10
158.1129543381651
 20
540.8617578665098
 30
0.0
 10
157.8387707630064
 20
541.1799814931709
 30
0.0
 10
157.2732847897997
 20
541.8044941596515
 30
0.0
 10
156.9811915863904
 20
542.1115590344438
 30
0.0
 10
155.4872494381517
 20
543.6062181499219
 30
0.0
 10
154.1935400252091
 20
544.6669298732389
 30
0.0
 10
152.1089881958343
 20
546.0626477692128
 30
0.0
 10
151.3899620522095
 20
546.4950837988124
 30
0.0
 10
150.2740123515225
 20
547.0931996805706
 30
0.0
 10
149.8946913955547
 20
547.2846238003469
 30
0.0
 10
149.1301699672361
 20
547.6469756121218
 30
0.0
 10
148.7448177034225
 20
547.8180662368143
 30
0.0
 10
146.8028472518433
 20
548.6239962421607
 30
0.0
 10
145.2010300546334
 20
549.1116968785425
 30
0.0
 10
143.1380282028275
 20
549.5247267145611
 30
0.0
 10
142.7223645046532
 20
549.5974134531115
 30
0.0
 10
141.8847889292868
 20
549.7225722777553
 30
0.0
 10
141.4618191999505
 20
549.7751106876015
 30
0.0
 10
140.1966397699531
 20
549.9005018457804
 30
0.0
 10
139.3551820416971
 20
549.9418693880225
 30
0.0
 10
136.8366281452984
 20
549.9428752712072
 30
0.0
 10
135.1652971806403
 20
549.7806023026917
 30
0.0
 10
133.0860377342454
 20
549.3678959948197
 30
0.0
 10
132.67063897318
 20
549.2746736837753
 30
0.0
 10
131.8502106056934
 20
549.0691536330351
 30
0.0
 10
131.4439871565816
 20
548.9566399773175
 30
0.0
 10
130.2370673864359
 20
548.5903424863316
 30
0.0
 10
129.4480941003586
 20
548.3078712217097
 30
0.0
 10
127.9009412291077
 20
547.6673311150922
 30
0.0
 10
127.1427614145083
 20
547.3092632590959
 30
0.0
 10
125.6575990633004
 20
546.5162423835765
 30
0.0
 10
124.927376976479
 20
546.0787909791592
 30
0.0
 10
122.8268640790164
 20
544.6752676190673
 30
0.0
 10
121.5350614142217
 20
543.614965063427
 30
0.0
 10
119.7566579464836
 20
541.839826378198
 30
0.0
 10
119.1898573904792
 20
541.2162020000783
 30
0.0
 10
118.1146702039006
 20
539.9082477292277
 30
0.0
 10
117.6136077384557
 20
539.2330106567255
 30
0.0
 10
116.2163264005669
 20
537.1453813541722
 30
0.0
 10
115.4249907593419
 20
535.671663374699
 30
0.0
 10
114.4527196076266
 20
533.3345395809525
 30
0.0
 10
114.1645433071204
 20
532.5321220273603
 30
0.0
 10
113.6738091696757
 20
530.9199381733838
 30
0.0
 10
113.46926539981
 20
530.1060049402203
 30
0.0
 10
113.1404685337705
 20
528.4626826538026
 30
0.0
 10
113.0162164986775
 20
527.6332934479817
 30
0.0
 10
112.8908007769253
 20
526.3774588176872
 30
0.0
 10
112.8591740331004
 20
525.9568854160009
 30
0.0
 10
112.8166294701276
 20
525.1117457001319
 30
0.0
 10
112.8057267281148
 20
524.6859594771622
 30
0.0
 10
112.8041284142771
 20
522.5639844845406
 30
0.0
 10
112.9694200219889
 20
520.8925670154615
 30
0.0
 10
113.4587575347064
 20
518.4232893474284
 30
0.0
 10
113.6623990699598
 20
517.6065499691645
 30
0.0
 10
114.0302911282372
 20
516.391205973972
 30
0.0
 10
114.1636608014996
 20
515.9869878128687
 30
0.0
 10
114.448492072515
 20
515.1904617372095
 30
0.0
 10
114.600202926645
 20
514.7971940796837
 30
0.0
 10
115.4043927232594
 20
512.8553424124494
 30
0.0
 10
116.1924455025078
 20
511.3795182260965
 30
0.0
 10
117.5918956586214
 20
509.281524375852
 30
0.0
 10
118.0979331699402
 20
508.5981963854749
 30
0.0
 10
119.1662928203206
 20
507.295269098493
 30
0.0
 10
119.7289320795931
 20
506.6742635749847
 30
0.0
 10
121.5003808646624
 20
504.9002110899781
 30
0.0
 10
122.7918760573127
 20
503.8352352411919
 30
0.0
 10
124.9026571324014
 20
502.4208245379878
 30
0.0
 10
125.6257272076598
 20
501.9867155334453
 30
0.0
 10
127.1035660708163
 20
501.1946246004002
 30
0.0
 10
127.859341664082
 20
500.8359746745729
 30
0.0
 10
129.4045255954289
 20
500.1930000591242
 30
0.0
 10
130.1939324412697
 20
499.9086724319127
 30
0.0
 10
131.8072758193132
 20
499.4160810526397
 30
0.0
 10
132.6344991112215
 20
499.2074641177036
 30
0.0
 10
135.1233587676303
 20
498.7095796027956
 30
0.0
 10
136.803661759505
 20
498.5422067321427
 30
0.0
 10
138.5053997750282
 20
498.5422067321427
 30
0.0
  0
LINE
  5
C5
330
1F
100
AcDbEntity
  8
0
  6
Continuous
 62
     7
370
    25
100
AcDbLine
 10
168.505399775
 20
663.8846071698
 30
0.0
 11
108.505399775
 21
663.8846071698
 31
0.0
  0
LINE
  5
C6
330
1F
100
AcDbEntity
  8
0
  6
Continuous
 62
     7
370
    25
100
AcDbLine
 10
218.505399775
 20
685.9664378598
 30
0.0
 11
58.505399775
 21
685.9664378598
 31
0.0
  0
LINE
  5
C7
330
1F
100
AcDbEntity
  8
0
  6
Continuous
 62
     7
370
    25
100
AcDbLine
 10
58.505399775
 20
685.9664378598
 30
0.0
 11
58.505399775
 21
670.9664378598
 31
0.0
  0
LINE
  5
C8
330
1F
100
AcDbEntity
  8
0
  6
Continuous
 62
     7
370
    25
100
AcDbLine
 10
218.505399775
 20
685.9664378598
 30
0.0
 11
218.505399775
 21
670.9664378598
 31
0.0
  0
INSERT
  5
D4
330
1F
100
AcDbEntity
  8
FORMAT
100
AcDbBlockReference
  2
SW_CENTERMARKSYMBOL_0
 10
138.505399775
 20
524.2422067321
 30
0.0
  0
LINE
  5
D5
330
1F
100
AcDbEntity
  8
0
  6
Continuous
 62
     7
370
    25
100
AcDbLine
 10
-248.5734719298
 20
236.0494
 30
0.0
 11
-248.5734719298
 21
220.8826387438
 31
0.0
  0
LINE
  5
D6
330
1F
100
AcDbEntity
  8
0
  6
Continuous
 62
     7
370
    25
100
AcDbLine
 10
-234.5734719298
 20
220.8866754256
 30
0.0
 11
-234.5734719298
 21
236.0494
 31
0.0
  0
LINE
  5
D7
330
1F
100
AcDbEntity
  8
0
  6
Continuous
 62
     7
370
    25
100
AcDbLine
 10
-273.0734719298
 20
289.0494
 30
0.0
 11
-273.0734719298
 21
217.6347404774
 31
0.0
  0
LINE
  5
D8
330
1F
100
AcDbEntity
  8
0
  6
Continuous
 62
     7
370
    25
100
AcDbLine
 10
-210.0734719298
 20
217.6530663945
 30
0.0
 11
-210.0734719298
 21
289.0494
 31
0.0
  0
LINE
  5
D9
330
1F
100
AcDbEntity
  8
0
  6
Continuous
 62
     7
370
    25
100
AcDbLine
 10
-403.2977030574
 20
65.0494
 30
0.0
 11
-388.2977030574
 21
65.0494
 31
0.0
  0
LINE
  5
DA
330
1F
100
AcDbEntity
  8
0
  6
Continuous
 62
     7
370
    25
100
AcDbLine
 10
-403.2977030574
 20
72.0494
 30
0.0
 11
-403.2977030574
 21
65.0494
 31
0.0
  0
LINE
  5
DB
330
1F
100
AcDbEntity
  8
0
  6
Continuous
 62
     7
370
    25
100
AcDbLine
 10
-381.5591854865
 20
72.0494
 30
0.0
 11
-403.2977030574
 21
72.0494
 31
0.0
  0
ARC
  5
DC
330
1F
100
AcDbEntity
  8
0
  6
Continuous
 62
     7
370
    25
100
AcDbCircle
 10
-241.5734719298
 20
74.0494
 30
0.0
 40
140.0
100
AcDbArc
 50
180.818538979
 51
179.181461021
  0
LINE
  5
DD
330
1F
100
AcDbEntity
  8
0
  6
Continuous
 62
     7
370
    25
100
AcDbLine
 10
-403.2977030574
 20
76.0494
 30
0.0
 11
-381.5591854865
 21
76.0494
 31
0.0
  0
LINE
  5
DE
330
1F
100
AcDbEntity
  8
0
  6
Continuous
 62
     7
370
    25
100
AcDbLine
 10
-403.2977030574
 20
83.0494
 30
0.0
 11
-403.2977030574
 21
76.0494
 31
0.0
  0
LINE
  5
DF
330
1F
100
AcDbEntity
  8
0
  6
Continuous
 62
     7
370
    25
100
AcDbLine
 10
-388.2977030574
 20
83.0494
 30
0.0
 11
-403.2977030574
 21
83.0494
 31
0.0
  0
ARC
  5
E0
330
1F
100
AcDbEntity
  8
0
  6
Continuous
 62
     7
370
    25
100
AcDbCircle
 10
-241.5734719298
 20
74.0494
 30
0.0
 40
147.0
100
AcDbArc
 50
183.5101001005
 51
176.4898998995
  0
LINE
  5
E1
330
1F
100
AcDbEntity
  8
0
  6
Continuous
 62
     7
370
    25
100
AcDbLine
 10
-234.5734719298
 20
236.0494
 30
0.0
 11
-248.5734719298
 21
236.0494
 31
0.0
  0
LINE
  5
E2
330
1F
100
AcDbEntity
  8
0
  6
Continuous
 62
     7
370
    25
100
AcDbLine
 10
-273.0734719298
 20
289.0494
 30
0.0
 11
-210.0734719298
 21
289.0494
 31
0.0
  0
LINE
  5
E3
330
1F
100
AcDbEntity
  8
0
  6
Continuous
 62
     7
370
    25
100
AcDbLine
 10
218.505399775
 20
-174.1022962564
 30
0.0
 11
58.505399775
 21
-174.1022962564
 31
0.0
  0
CIRCLE
  5
E4
330
1F
100
AcDbEntity
  8
0
  6
Continuous
 62
     7
370
    25
100
AcDbCircle
 10
138.505399775
 20
-321.1022962564
 30
0.0
 40
25.70000000000005
  0
CIRCLE
  5
E5
330
1F
100
AcDbEntity
  8
0
  6
Continuous
 62
     7
370
    25
100
AcDbCircle
 10
138.505399775
 20
-321.1022962564
 30
0.0
 40
31.50000000000006
  0
CIRCLE
  5
E6
330
1F
100
AcDbEntity
  8
0
  6
Continuous
 62
     7
370
    25
100
AcDbCircle
 10
68.505399775
 20
-321.1022962564
 30
0.0
 40
4.600000000000023
  0
CIRCLE
  5
E7
330
1F
100
AcDbEntity
  8
0
  6
Continuous
 62
     7
370
    25
100
AcDbCircle
 10
68.505399775
 20
-321.1022962564
 30
0.0
 40
7.0
  0
CIRCLE
  5
E8
330
1F
100
AcDbEntity
  8
0
  6
Continuous
 62
     7
370
    25
100
AcDbCircle
 10
208.505399775
 20
-321.1022962564
 30
0.0
 40
4.600000000000023
  0
CIRCLE
  5
E9
330
1F
100
AcDbEntity
  8
0
  6
Continuous
 62
     7
370
    25
100
AcDbCircle
 10
208.505399775
 20
-321.1022962564
 30
0.0
 40
7.0
  0
CIRCLE
  5
EA
330
1F
100
AcDbEntity
  8
0
  6
Continuous
 62
     7
370
    25
100
AcDbCircle
 10
68.505399775
 20
-321.1022962564
 30
0.0
 40
1.5
  0
CIRCLE
  5
EB
330
1F
100
AcDbEntity
  8
0
  6
Continuous
 62
     7
370
    25
100
AcDbCircle
 10
68.505399775
 20
-321.1022962564
 30
0.0
 40
2.0
  0
CIRCLE
  5
EC
330
1F
100
AcDbEntity
  8
0
  6
Continuous
 62
     7
370
    25
100
AcDbCircle
 10
208.505399775
 20
-321.1022962564
 30
0.0
 40
1.5
  0
CIRCLE
  5
ED
330
1F
100
AcDbEntity
  8
0
  6
Continuous
 62
     7
370
    25
100
AcDbCircle
 10
208.505399775
 20
-321.1022962564
 30
0.0
 40
2.0
  0
LINE
  5
EE
330
1F
100
AcDbEntity
  8
0
  6
Continuous
 62
     7
370
    25
100
AcDbLine
 10
218.505399775
 20
-174.1022962564
 30
0.0
 11
218.505399775
 21
-467.826527384
 31
0.0
  0
LINE
  5
EF
330
1F
100
AcDbEntity
  8
0
  6
Continuous
 62
     7
370
    25
100
AcDbLine
 10
218.505399775
 20
-467.826527384
 30
0.0
 11
58.505399775
 21
-467.826527384
 31
0.0
  0
LINE
  5
F0
330
1F
100
AcDbEntity
  8
0
  6
Continuous
 62
     7
370
    25
100
AcDbLine
 10
58.505399775
 20
-174.1022962564
 30
0.0
 11
58.505399775
 21
-467.826527384
 31
0.0
  0
LINE
  5
F1
330
1F
100
AcDbEntity
  8
0
  6
Continuous
 62
     7
370
    25
100
AcDbLine
 10
218.505399775
 20
-482.826527384
 30
0.0
 11
58.505399775
 21
-482.826527384
 31
0.0
  0
LINE
  5
F2
330
1F
100
AcDbEntity
  8
0
  6
Continuous
 62
     7
370
    25
100
AcDbLine
 10
58.505399775
 20
-467.826527384
 30
0.0
 11
58.505399775
 21
-482.826527384
 31
0.0
  0
LINE
  5
F3
330
1F
100
AcDbEntity
  8
0
  6
Continuous
 62
     7
370
    25
100
AcDbLine
 10
218.505399775
 20
-467.826527384
 30
0.0
 11
218.505399775
 21
-482.826527384
 31
0.0
  0
INSERT
  5
FF
330
1F
100
AcDbEntity
  8
FORMAT
100
AcDbBlockReference
  2
SW_CENTERMARKSYMBOL_1
 10
138.505399775
 20
-321.1022962564
 30
0.0
  0
INSERT
  5
10B
330
1F
100
AcDbEntity
  8
FORMAT
100
AcDbBlockReference
  2
SW_CENTERMARKSYMBOL_2
 10
68.505399775
 20
-321.1022962564
 30
0.0
  0
INSERT
  5
117
330
1F
100
AcDbEntity
  8
FORMAT
100
AcDbBlockReference
  2
SW_CENTERMARKSYMBOL_3
 10
208.505399775
 20
-321.1022962564
 30
0.0
  0
LINE
  5
118
330
1F
100
AcDbEntity
  8
0
  6
Continuous
 62
     7
370
    25
100
AcDbLine
 10
527.4426349329
 20
-485.8342671005
 30
0.0
 11
640.5797199227
 21
-420.5216181547
 31
0.0
  0
LINE
  5
119
330
1F
100
AcDbEntity
  8
0
  6
Continuous
 62
     7
370
    25
100
AcDbLine
 10
493.5916662252
 20
-165.9032526148
 30
0.0
 11
380.4545812354
 21
-231.2159015606
 31
0.0
  0
LINE
  5
11A
330
1F
100
AcDbEntity
  8
0
  6
Continuous
 62
     7
370
    25
100
AcDbLine
 10
553.0146252621
 20
-165.0148644184
 30
0.0
 11
553.0146252621
 21
-166.1627691553
 31
0.0
  0
LINE
  5
11B
330
1F
100
AcDbEntity
  8
0
  6
Continuous
 62
     7
370
    25
100
AcDbLine
 10
567.0146252621
 20
-173.1399375178
 30
0.0
 11
567.0146252621
 21
-165.0148644184
 31
0.0
  0
LINE
  5
11C
330
1F
100
AcDbEntity
  8
0
  6
Continuous
 62
     7
370
    25
100
AcDbLine
 10
479.017150579
 20
-150.3124853022
 30
0.0
 11
479.017150579
 21
-174.3169414069
 31
0.0
  0
LINE
  5
11D
330
1F
100
AcDbEntity
  8
0
  6
Continuous
 62
     7
370
    25
100
AcDbLine
 10
542.017150579
 20
-162.2522153835
 30
0.0
 11
542.017150579
 21
-150.3124853022
 31
0.0
  0
LINE
  5
11E
330
1F
100
AcDbEntity
  8
0
  6
Continuous
 62
     7
370
    25
100
AcDbLine
 10
452.7293925614
 20
-234.5448156063
 30
0.0
 11
463.3359942792
 21
-240.6678764449
 31
0.0
  0
LINE
  5
11F
330
1F
100
AcDbEntity
  8
0
  6
Continuous
 62
     7
370
    25
100
AcDbLine
 10
452.7293925614
 20
-228.8290299231
 30
0.0
 11
452.7293925614
 21
-234.5448156063
 31
0.0
  0
LINE
  5
120
330
1F
100
AcDbEntity
  8
0
  6
Continuous
 62
     7
370
    25
100
AcDbLine
 10
468.1008457487
 20
-237.702780965
 30
0.0
 11
452.7293925614
 21
-228.8290299231
 31
0.0
  0
LWPOLYLINE
  5
121
330
1F
100
AcDbEntity
  8
0
  6
Continuous
 62
     7
370
    25
100
AcDbPolyline
 90
      127
 70
   128
 43
0.0
 10
468.1008457487
 20
-234.4366177175
 10
468.292947828
 20
-228.8778290944
 10
468.7284359425
 20
-223.477535356
 10
469.4062372227
 20
-218.2490406782
 10
470.3246818357
 20
-213.2052259926
 10
471.4815070993
 20
-208.3585172527
 10
472.8738630562
 20
-203.7208548213
 10
474.498319495
 20
-199.3036640544
 10
476.350874401
 20
-195.1178271533
 10
478.4269638157
 20
-191.1736563555
 10
480.7214730804
 20
-187.4808685291
 10
483.2287494368
 20
-184.0485612349
 10
485.9426159531
 20
-180.885190313
 10
488.8563867415
 20
-177.9985490513
 10
491.9628834295
 20
-175.3957489859
 10
495.2544528448
 20
-173.083202381
 10
498.7229858692
 20
-171.0666064319
 10
502.3599374169
 20
-169.3509292288
 10
506.1563474857
 20
-167.9403975182
 10
510.1028632308
 20
-166.8384862892
 10
514.1897620071
 20
-166.0479102128
 10
518.4069753213
 20
-165.5706169542
 10
522.7441136368
 20
-165.4077823741
 10
527.1904919698
 20
-165.5598076321
 10
531.7351562123
 20
-166.0263181984
 10
536.366910119
 20
-166.8061647766
 10
541.0743428903
 20
-167.8974261348
 10
545.8458572839
 20
-169.2974138391
 10
550.6696981861
 20
-171.0026788764
 10
555.5339815711
 20
-173.0090201519
 10
560.4267237792
 20
-175.3114948386
 10
565.3358710394
 20
-177.9044305545
 10
570.2493291653
 20
-180.7814393373
 10
575.15499335
 20
-183.9354333815
 10
580.0407779879
 20
-187.3586424999
 10
584.8946464487
 20
-191.0426332669
 10
589.7046407308
 20
-194.9783297942
 10
594.4589109214
 20
-199.1560360907
 10
599.1457443892
 20
-203.5654599496
 10
603.7535946406
 20
-208.1957383041
 10
608.2711097651
 20
-213.0354639897
 10
612.687160402
 20
-218.0727138471
 10
616.9908671587
 20
-223.2950780959
 10
621.1716274134
 20
-228.6896909075
 10
625.2191414354
 20
-234.2432621014
 10
629.1234377598
 20
-239.9421098866
 10
632.8748977533
 20
-245.7721945687
 10
636.4642793103
 20
-251.7191531375
 10
639.882739622
 20
-257.7683346522
 10
643.1218569619
 20
-263.9048363354
 10
646.173651433
 20
-270.1135402871
 10
649.0306046273
 20
-276.3791507302
 10
651.6856781483
 20
-282.6862316922
 10
654.1323309509
 20
-289.0192450339
 10
656.3645354555
 20
-295.362588729
 10
658.3767923979
 20
-301.7006353014
 10
660.1641443774
 20
-308.0177703248
 10
661.7221880694
 20
-314.298430891
 10
663.0470850739
 20
-320.5271439499
 10
664.1355713716
 20
-326.6885644298
 10
664.9849653651
 20
-332.7675130409
 10
665.5931744854
 20
-338.7490136714
 10
665.9587003472
 20
-344.6183302825
 10
666.0806424401
 20
-350.3610032123
 10
665.9587003472
 20
-355.9628847986
 10
665.5931744854
 20
-361.4101742328
 10
664.9849653651
 20
-366.6894515602
 10
664.1355713716
 20
-371.7877107409
 10
663.0470850739
 20
-376.6923916919
 10
661.7221880694
 20
-381.3914112299
 10
660.1641443774
 20
-385.8731928395
 10
658.3767923979
 20
-390.1266951932
 10
656.3645354555
 20
-394.1414393527
 10
654.1323309509
 20
-397.9075345851
 10
651.6856781483
 20
-401.4157027294
 10
649.0306046273
 20
-404.6573010546
 10
646.173651433
 20
-407.6243435515
 10
643.1218569619
 20
-410.3095206074
 10
639.882739622
 20
-412.7062170139
 10
636.4642793103
 20
-414.8085282642
 10
632.8748977533
 20
-416.6112750994
 10
629.1234377598
 20
-418.1100162683
 10
625.2191414354
 20
-419.3010594686
 10
621.1716274134
 20
-420.1814704436
 10
616.9908671587
 20
-420.7490802108
 10
612.687160402
 20
-421.0024904055
 10
608.2711097651
 20
-420.9410767257
 10
603.7535946406
 20
-420.5649904703
 10
599.1457443892
 20
-419.8751581662
 10
594.4589109214
 20
-418.8732792859
 10
589.7046407308
 20
-417.5618220606
 10
584.8946464487
 20
-415.9440173993
 10
580.0407779879
 20
-414.0238509292
 10
575.15499335
 20
-411.806053177
 10
570.2493291653
 20
-409.2960879143
 10
565.3358710394
 20
-406.5001386972
 10
560.4267237792
 20
-403.4250936329
 10
555.5339815711
 20
-400.0785284093
 10
550.669698186
 20
-396.4686876322
 10
545.8458572839
 20
-392.6044645138
 10
541.0743428903
 20
-388.4953789631
 10
536.366910119
 20
-384.1515541326
 10
531.7351562123
 20
-379.5836914793
 10
527.1904919698
 20
-374.8030444002
 10
522.7441136368
 20
-369.8213905084
 10
518.4069753213
 20
-364.6510026179
 10
514.1897620071
 20
-359.3046185082
 10
510.1028632308
 20
-353.7954095437
 10
506.1563474857
 20
-348.1369482243
 10
502.3599374169
 20
-342.3431747482
 10
498.7229858692
 20
-336.4283626693
 10
495.2544528448
 20
-330.4070837321
 10
491.9628834295
 20
-324.2941719734
 10
488.8563867415
 20
-318.1046871768
 10
485.9426159531
 20
-311.8538777712
 10
483.2287494368
 20
-305.557143265
 10
480.7214730804
 20
-299.2299963081
 10
478.4269638157
 20
-292.8880244742
 10
476.350874401
 20
-286.5468518597
 10
474.498319495
 20
-280.2221005922
 10
472.8738630562
 20
-273.9293523435
 10
471.4815070993
 20
-267.6841099427
 10
470.3246818357
 20
-261.5017591833
 10
469.4062372227
 20
-255.397530919
 10
468.7284359425
 20
-249.3864635407
 10
468.292947828
 20
-243.4833659277
 10
468.1008457487
 20
-237.702780965
  0
LINE
  5
122
330
1F
100
AcDbEntity
  8
0
  6
Continuous
 62
     7
370
    25
100
AcDbLine
 10
452.7293925614
 20
-225.5628666755
 30
0.0
 11
468.1008457487
 21
-234.4366177175
 31
0.0
  0
LINE
  5
123
330
1F
100
AcDbEntity
  8
0
  6
Continuous
 62
     7
370
    25
100
AcDbLine
 10
452.7293925614
 20
-219.8470809923
 30
0.0
 11
452.7293925614
 21
-225.5628666755
 31
0.0
  0
LINE
  5
124
330
1F
100
AcDbEntity
  8
0
  6
Continuous
 62
     7
370
    25
100
AcDbLine
 10
463.3359942792
 20
-225.970141831
 30
0.0
 11
452.7293925614
 21
-219.8470809923
 31
0.0
  0
LWPOLYLINE
  5
125
330
1F
100
AcDbEntity
  8
0
  6
Continuous
 62
     7
370
    25
100
AcDbPolyline
 90
      128
 70
   128
 43
0.0
 10
463.3359942792
 20
-240.6678764449
 10
463.7666280752
 20
-246.7172529457
 10
464.4403379942
 20
-252.8760174735
 10
465.3555390162
 20
-259.1296804607
 10
466.5100779711
 20
-265.4635290741
 10
467.9012386046
 20
-271.8626618301
 10
469.5257479688
 20
-278.3120236525
 10
471.3797841218
 20
-284.7964412927
 10
473.4589851203
 20
-291.3006590271
 10
475.7584592812
 20
-297.8093745488
 10
478.2727966905
 20
-304.3072749693
 10
480.9960819308
 20
-310.7790728443
 10
483.9219079984
 20
-317.2095421404
 10
487.0433913774
 20
-323.5835540569
 10
490.3531882334
 20
-329.8861126189
 10
493.843511692
 20
-336.1023899579
 10
497.5061501584
 20
-342.2177611972
 10
501.3324866369
 20
-348.2178388592
 10
505.3135190032
 20
-354.0885067145
 10
509.4398811844
 20
-359.815952993
 10
513.7018651937
 20
-365.3867028782
 10
518.0894439701
 20
-370.7876502093
 10
522.5922949693
 20
-376.0060883155
 10
527.1998244489
 20
-381.0297399109
 10
531.9011923919
 20
-385.8467859788
 10
536.6853380103
 20
-390.4458935781
 10
541.5410057669
 20
-394.8162425059
 10
546.4567718564
 20
-398.947550754
 10
551.4210710814
 20
-402.830098699
 10
556.4222240622
 20
-406.4547519698
 10
561.448464714
 20
-409.8129829371
 10
566.4879679288
 20
-412.8968907769
 10
571.5288773962
 20
-415.6992200579
 10
576.5593334975
 20
-418.2133778118
 10
581.5675012072
 20
-420.4334490438
 10
586.541597937
 20
-422.3542106492
 10
591.4699212569
 20
-423.9711437012
 10
596.3408764264
 20
-425.2804440826
 10
601.1430036739
 20
-426.2790314361
 10
605.8650051573
 20
-426.9645564106
 10
610.4957715446
 20
-427.3354061891
 10
615.0244081499
 20
-427.3907082828
 10
619.4402605657
 20
-427.1303325839
 10
623.7329397289
 20
-426.5548916715
 10
627.892346363
 20
-425.6657393709
 10
631.9086947383
 20
-424.4649675679
 10
635.7725356946
 20
-422.9554012876
 10
639.4747788722
 20
-421.1405920481
 10
643.0067140981
 20
-419.0248095046
 10
646.3600318786
 20
-416.6130314047
 10
649.5268429486
 20
-413.910931877
 10
652.4996968329
 20
-410.924868082
 10
655.2715993739
 20
-407.6618652557
 10
657.8360291874
 20
-404.1296001815
 10
660.1869530051
 20
-400.336383129
 10
662.3188398684
 20
-396.291138303
 10
664.2266741417
 20
-392.0033828477
 10
665.9059673121
 20
-387.4832044557
 10
667.3527685495
 20
-382.7412376352
 10
668.5636740015
 20
-377.7886386902
 10
669.5358348018
 20
-372.6370594737
 10
670.2669637726
 20
-367.2986199745
 10
670.7553408055
 20
-361.7858798026
 10
670.9998169083
 20
-356.111808641
 10
670.9998169083
 20
-350.2897557319
 10
670.7553408055
 20
-344.3334184702
 10
670.2669637726
 20
-338.2568101785
 10
669.5358348018
 20
-332.0742271376
 10
668.5636740015
 20
-325.8002149527
 10
667.3527685495
 20
-319.4495343319
 10
665.9059673121
 20
-313.037126359
 10
664.2266741417
 20
-306.5780773425
 10
662.3188398684
 20
-300.0875833218
 10
660.1869530051
 20
-293.5809143163
 10
657.8360291874
 20
-287.0733783999
 10
655.2715993739
 20
-280.5802856859
 10
652.4996968329
 20
-274.1169123076
 10
649.5268429486
 20
-267.6984644782
 10
646.3600318786
 20
-261.340042716
 10
643.0067140981
 20
-255.0566063173
 10
639.4747788722
 20
-248.8629381623
 10
635.7725356946
 20
-242.7736099356
 10
631.9086947383
 20
-236.8029478443
 10
627.892346363
 20
-230.9649989122
 10
623.7329397289
 20
-225.2734979328
 10
619.4402605657
 20
-219.7418351547
 10
615.0244081499
 20
-214.3830247797
 10
610.4957715446
 20
-209.2096743439
 10
605.8650051573
 20
-204.2339550566
 10
601.1430036739
 20
-199.4675731654
 10
596.3408764264
 20
-194.9217424152
 10
591.4699212569
 20
-190.6071576657
 10
586.541597937
 20
-186.5339697302
 10
581.5675012072
 20
-182.7117614938
 10
576.5593334975
 20
-179.1495253682
 10
571.5288773962
 20
-175.8556421352
 10
566.4879679288
 20
-172.8378612296
 10
561.448464714
 20
-170.1032825075
 10
556.4222240622
 20
-167.6583395424
 10
551.4210710814
 20
-165.508784489
 10
546.4567718564
 20
-163.6596745505
 10
541.5410057669
 20
-162.1153600808
 10
536.6853380103
 20
-160.8794743488
 10
531.9011923919
 20
-159.9549249915
 10
527.1998244489
 20
-159.3438871723
 10
522.5922949693
 20
-159.0477984645
 10
518.0894439701
 20
-159.0673554683
 10
513.7018651937
 20
-159.4025121725
 10
509.4398811844
 20
-160.0524800624
 10
505.3135190032
 20
-161.0157299753
 10
501.3324866369
 20
-162.2899956976
 10
497.5061501584
 20
-163.872279297
 10
493.843511692
 20
-165.7588581753
 10
490.3531882334
 20
-167.9452938266
 10
487.0433913774
 20
-170.4264422796
 10
483.9219079984
 20
-173.1964661999
 10
480.9960819308
 20
-176.2488486228
 10
478.2727966905
 20
-179.5764082864
 10
475.7584592812
 20
-183.1713165261
 10
473.4589851203
 20
-187.0251156931
 10
471.3797841218
 20
-191.1287390527
 10
469.5257479688
 20
-195.4725321151
 10
467.9012386046
 20
-200.0462753493
 10
466.5100779711
 20
-204.8392082267
 10
465.3555390162
 20
-209.8400545366
 10
464.4403379942
 20
-215.0370489156
 10
463.7666280752
 20
-220.4179645279
 10
463.3359942792
 20
-225.970141831
  0
LINE
  5
126
330
1F
100
AcDbEntity
  8
0
  6
Continuous
 62
     7
370
    25
100
AcDbLine
 10
463.3359942792
 20
-240.6678764449
 30
0.0
 11
350.1989092894
 21
-305.9805253908
 31
0.0
  0
LWPOLYLINE
  5
127
330
1F
100
AcDbEntity
  8
0
  6
Continuous
 62
     7
370
    25
100
AcDbPolyline
 90
       49
 70
   128
 43
0.0
 10
350.1989092894
 20
-305.9805253908
 10
350.6295430853
 20
-312.0299018915
 10
351.3032530043
 20
-318.1886664193
 10
352.2184540263
 20
-324.4423294065
 10
353.3729929812
 20
-330.7761780199
 10
354.7641536148
 20
-337.1753107759
 10
356.3886629789
 20
-343.6246725983
 10
358.242699132
 20
-350.1090902385
 10
360.3219001305
 20
-356.6133079729
 10
362.6213742914
 20
-363.1220234946
 10
365.1357117006
 20
-369.6199239151
 10
367.8589969409
 20
-376.0917217901
 10
370.7848230086
 20
-382.5221910862
 10
373.9063063875
 20
-388.8962030027
 10
377.2161032435
 20
-395.1987615647
 10
380.7064267021
 20
-401.4150389037
 10
384.3690651686
 20
-407.530410143
 10
388.195401647
 20
-413.530487805
 10
392.1764340134
 20
-419.4011556603
 10
396.3027961946
 20
-425.1286019388
 10
400.5647802038
 20
-430.699351824
 10
404.9523589802
 20
-436.1002991551
 10
409.4552099795
 20
-441.3187372613
 10
414.062739459
 20
-446.3423888567
 10
418.7641074021
 20
-451.1594349246
 10
423.5482530205
 20
-455.7585425239
 10
428.4039207771
 20
-460.1288914517
 10
433.3196868665
 20
-464.2601996998
 10
438.2839860916
 20
-468.1427476449
 10
443.2851390724
 20
-471.7674009156
 10
448.3113797241
 20
-475.1256318829
 10
453.3508829389
 20
-478.2095397227
 10
458.3917924064
 20
-481.0118690037
 10
463.4222485077
 20
-483.5260267576
 10
468.4304162173
 20
-485.7460979897
 10
473.4045129472
 20
-487.666859595
 10
478.332836267
 20
-489.283792647
 10
483.2037914365
 20
-490.5930930285
 10
488.005918684
 20
-491.5916803819
 10
492.7279201675
 20
-492.2772053565
 10
497.3586865547
 20
-492.648055135
 10
501.88732316
 20
-492.7033572286
 10
506.3031755758
 20
-492.4429815297
 10
510.5958547391
 20
-491.8675406173
 10
514.7552613731
 20
-490.9783883167
 10
518.7716097484
 20
-489.7776165137
 10
522.6354507048
 20
-488.2680502334
 10
526.3376938823
 20
-486.4532409939
 10
527.4426349329
 20
-485.8342671005
  0
LWPOLYLINE
  5
128
330
1F
100
AcDbEntity
  8
0
  6
Continuous
 62
     7
370
    25
100
AcDbPolyline
 90
       14
 70
   128
 43
0.0
 10
380.4545812354
 20
-231.2159015606
 10
377.2161032435
 20
-233.2579427724
 10
373.9063063875
 20
-235.7390912254
 10
370.7848230086
 20
-238.5091151457
 10
367.8589969409
 20
-241.5614975686
 10
365.1357117006
 20
-244.8890572322
 10
362.6213742914
 20
-248.4839654719
 10
360.3219001305
 20
-252.3377646389
 10
358.242699132
 20
-256.4413879985
 10
356.3886629789
 20
-260.7851810609
 10
354.7641536148
 20
-265.3589242952
 10
353.3729929812
 20
-270.1518571726
 10
352.2184540263
 20
-275.1527034824
 10
351.6487502823
 20
-278.1996937098
  0
LINE
  5
129
330
1F
100
AcDbEntity
  8
0
  6
Continuous
 62
     7
370
    25
100
AcDbLine
 10
385.6000417204
 20
-286.4132993578
 30
0.0
 11
428.0264485916
 21
-261.9210560032
 31
0.0
  0
LWPOLYLINE
  5
12A
330
1F
100
AcDbEntity
  8
0
  6
Continuous
 62
     7
370
    25
100
AcDbPolyline
 90
       37
 70
   128
 43
0.0
 10
516.3690028682
 20
-469.6303845875
 10
511.4148673055
 20
-468.1636554388
 10
506.4075257127
 20
-466.3839868493
 10
501.3590273741
 20
-464.2956612775
 10
496.2815206108
 20
-461.9037039108
 10
491.1872235474
 20
-459.2138705726
 10
486.0883947115
 20
-456.2326338726
 10
480.9973035355
 20
-452.9671676311
 10
475.9262008324
 20
-449.4253296169
 10
470.8872893168
 20
-445.6156426385
 10
465.8926942405
 20
-441.5472740357
 10
460.9544342158
 20
-437.2300136203
 10
456.0843922947
 20
-432.6742501181
 10
451.2942873742
 20
-427.8909461705
 10
446.5956459971
 20
-422.891611955
 10
441.9997746153
 20
-417.6882774878
 10
437.5177323828
 20
-412.2934636756
 10
433.1603045438
 20
-406.7201521865
 10
428.93797648
 20
-400.9817542119
 10
424.8609084794
 20
-395.0920781946
 10
420.9389112871
 20
-389.0652966011
 10
417.1814224976
 20
-382.9159118186
 10
413.5974838452
 20
-376.6587212573
 10
410.1957194463
 20
-370.3087817427
 10
406.9843150469
 20
-363.8813732845
 10
403.9709983254
 20
-357.3919623078
 10
401.1630202971
 20
-350.8561644355
 10
398.5671378661
 20
-344.2897069129
 10
396.1895975655
 20
-337.7083907619
 10
394.0361205268
 20
-331.1280527592
 10
392.1118887128
 20
-324.5645273279
 10
390.4215324481
 20
-318.0336084345
 10
388.9691192768
 20
-311.5510115835
 10
387.7581441751
 20
-305.1323360011
 10
386.7915211411
 20
-298.7930270982
 10
386.0715761827
 20
-292.5483393038
 10
385.6000417204
 20
-286.4132993578
  0
LINE
  5
12B
330
1F
100
AcDbEntity
  8
0
  6
Continuous
 62
     7
370
    25
100
AcDbLine
 10
558.7954097394
 20
-445.1381412328
 30
0.0
 11
516.3690028682
 21
-469.6303845875
 31
0.0
  0
LWPOLYLINE
  5
12C
330
1F
100
AcDbEntity
  8
0
  6
Continuous
 62
     7
370
    25
100
AcDbPolyline
 90
       37
 70
   128
 43
0.0
 10
428.0264485916
 20
-261.9210560032
 10
428.4979830539
 20
-268.0560959492
 10
429.2179280123
 20
-274.3007837436
 10
430.1845510463
 20
-280.6400926464
 10
431.3955261479
 20
-287.0587682288
 10
432.8479393192
 20
-293.5413650798
 10
434.538295584
 20
-300.0722839732
 10
436.462527398
 20
-306.6358094045
 10
438.6160044367
 20
-313.2161474072
 10
440.9935447373
 20
-319.7974635582
 10
443.5894271683
 20
-326.3639210809
 10
446.3974051966
 20
-332.8997189531
 10
449.4107219181
 20
-339.3891299298
 10
452.6221263175
 20
-345.816538388
 10
456.0238907164
 20
-352.1664779026
 10
459.6078293688
 20
-358.423668464
 10
463.3653181582
 20
-364.5730532464
 10
467.2873153506
 20
-370.5998348399
 10
471.3643833512
 20
-376.4895108573
 10
475.586711415
 20
-382.2279088319
 10
479.944139254
 20
-387.8012203209
 10
484.4261814865
 20
-393.1960341331
 10
489.0220528683
 20
-398.3993686003
 10
493.7206942454
 20
-403.3987028158
 10
498.5107991659
 20
-408.1820067634
 10
503.380841087
 20
-412.7377702657
 10
508.3191011117
 20
-417.0550306811
 10
513.313696188
 20
-421.1233992838
 10
518.3526077036
 20
-424.9330862622
 10
523.4237104067
 20
-428.4749242764
 10
528.5148015827
 20
-431.7403905179
 10
533.6136304186
 20
-434.7216272179
 10
538.707927482
 20
-437.4114605561
 10
543.7854342453
 20
-439.8034179228
 10
548.8339325838
 20
-441.8917434946
 10
553.8412741767
 20
-443.6714120841
 10
558.7954097394
 20
-445.1381412328
  0
SPLINE
  5
12D
330
1F
100
AcDbEntity
  8
0
  6
Continuous
 62
     7
370
    25
100
AcDbSpline
210
0.0
220
0.0
230
1.0
 70
    11
 71
     3
 72
   124
 73
   120
 74
     0
 42
0.00000001
 43
0.00000001
 40
0.0
 40
0.0
 40
0.0
 40
0.0
 40
0.0312499999999999
 40
0.0312499999999999
 40
0.0468749999999999
 40
0.0468749999999999
 40
0.0624999999999999
 40
0.0624999999999999
 40
0.0937499999999998
 40
0.0937499999999998
 40
0.1015624999999998
 40
0.1015624999999998
 40
0.1093749999999998
 40
0.1093749999999998
 40
0.1249999999999998
 40
0.1249999999999998
 40
0.1562499999999998
 40
0.1562499999999998
 40
0.1640624999999998
 40
0.1640624999999998
 40
0.1718749999999998
 40
0.1718749999999998
 40
0.1874999999999998
 40
0.1874999999999998
 40
0.2031249999999998
 40
0.2031249999999998
 40
0.2109374999999999
 40
0.2109374999999999
 40
0.2187499999999999
 40
0.2187499999999999
 40
0.2500000000000001
 40
0.2500000000000001
 40
0.2656250000000001
 40
0.2656250000000001
 40
0.2812500000000002
 40
0.2812500000000002
 40
0.3125000000000004
 40
0.3125000000000004
 40
0.3281250000000004
 40
0.3281250000000004
 40
0.3437500000000006
 40
0.3437500000000006
 40
0.3593750000000006
 40
0.3593750000000006
 40
0.3671875000000006
 40
0.3671875000000006
 40
0.3750000000000006
 40
0.3750000000000006
 40
0.4062500000000004
 40
0.4062500000000004
 40
0.4218750000000003
 40
0.4218750000000003
 40
0.4296875000000003
 40
0.4296875000000003
 40
0.4375000000000003
 40
0.4375000000000003
 40
0.4687500000000002
 40
0.4687500000000002
 40
0.4765625000000002
 40
0.4765625000000002
 40
0.4843750000000002
 40
0.4843750000000002
 40
0.5000000000000001
 40
0.5000000000000001
 40
0.53125
 40
0.53125
 40
0.5390625
 40
0.5390625
 40
0.546875
 40
0.546875
 40
0.5625
 40
0.5625
 40
0.578125
 40
0.578125
 40
0.5937499999999999
 40
0.5937499999999999
 40
0.6249999999999999
 40
0.6249999999999999
 40
0.6406249999999998
 40
0.6406249999999998
 40
0.6562499999999998
 40
0.6562499999999998
 40
0.6874999999999999
 40
0.6874999999999999
 40
0.7031249999999998
 40
0.7031249999999998
 40
0.7187499999999998
 40
0.7187499999999998
 40
0.7343749999999998
 40
0.7343749999999998
 40
0.7421874999999998
 40
0.7421874999999998
 40
0.7499999999999997
 40
0.7499999999999997
 40
0.7812499999999997
 40
0.7812499999999997
 40
0.7968749999999997
 40
0.7968749999999997
 40
0.8046874999999997
 40
0.8046874999999997
 40
0.8124999999999996
 40
0.8124999999999996
 40
0.8437499999999997
 40
0.8437499999999997
 40
0.8593749999999997
 40
0.8593749999999997
 40
0.8749999999999996
 40
0.8749999999999996
 40
0.9062499999999997
 40
0.9062499999999997
 40
0.9218749999999997
 40
0.9218749999999997
 40
0.9374999999999998
 40
0.9374999999999998
 40
0.9531249999999999
 40
0.9531249999999999
 40
0.96875
 40
0.96875
 40
1.0
 40
1.0
 40
1.0
 40
1.0
 10
528.6897948555397
 20
-223.9865289559361
 30
0.0
 10
529.8931053461192
 20
-223.2918725959009
 30
0.0
 10
530.9574538671446
 20
-222.5150532887899
 30
0.0
 10
532.3545502270962
 20
-221.2340467972543
 30
0.0
 10
532.7867626022212
 20
-220.7876440027634
 30
0.0
 10
533.5827605658585
 20
-219.8560766025558
 30
0.0
 10
533.9467318823957
 20
-219.3697397840253
 30
0.0
 10
534.9115448695208
 20
-217.8861528217758
 30
0.0
 10
535.3959746687008
 20
-216.854602971519
 30
0.0
 10
535.8052251939075
 20
-215.5198330116342
 30
0.0
 10
535.8771706348768
 20
-215.250596592126
 30
0.0
 10
536.000937791801
 20
-214.7076935462845
 30
0.0
 10
536.0528380082138
 20
-214.433308786928
 30
0.0
 10
536.1766373182633
 20
-213.6115198208319
 30
0.0
 10
536.2172472804009
 20
-213.0642068348455
 30
0.0
 10
536.2169566589725
 20
-211.4263658154637
 30
0.0
 10
536.055138178991
 20
-210.3398755189846
 30
0.0
 10
535.644560163163
 20
-208.9970501486708
 30
0.0
 10
535.5517134224348
 20
-208.7288352301179
 30
0.0
 10
535.3468834074455
 20
-208.1999416498481
 30
0.0
 10
535.2347306611105
 20
-207.9385898862976
 30
0.0
 10
534.8695298598249
 20
-207.1639415925357
 30
0.0
 10
534.5878078301683
 20
-206.6600362683703
 30
0.0
 10
533.948637328874
 20
-205.6783054680555
 30
0.0
 10
533.5911900249159
 20
-205.2004776225236
 30
0.0
 10
532.9971456436471
 20
-204.5044642343047
 30
0.0
 10
532.7894679227688
 20
-204.2759188804398
 30
0.0
 10
532.3543849214387
 20
-203.8260003160297
 30
0.0
 10
532.1267935935733
 20
-203.6045461872257
 30
0.0
 10
530.9523796056833
 20
-202.5281342475976
 30
0.0
 10
529.8876485670901
 20
-201.754658593347
 30
0.0
 10
528.1067509973391
 20
-200.7251490248949
 30
0.0
 10
527.4822661121731
 20
-200.4038757973648
 30
0.0
 10
526.16952912494
 20
-199.8064126265465
 30
0.0
 10
525.488196773596
 20
-199.5335993133812
 30
0.0
 10
523.3901909584893
 20
-198.7973673878111
 30
0.0
 10
521.9123306174038
 20
-198.4120006304298
 30
0.0
 10
519.5755023797199
 20
-197.9874177480984
 30
0.0
 10
518.7732021157543
 20
-197.8715202767873
 30
0.0
 10
517.1613775931706
 20
-197.6950835535914
 30
0.0
 10
516.3483747304244
 20
-197.633695357189
 30
0.0
 10
514.7083318889207
 20
-197.5618709999847
 30
0.0
 10
513.8812917615747
 20
-197.5514391581651
 30
0.0
 10
512.6299880657372
 20
-197.5730267538191
 30
0.0
 10
512.2110929161066
 20
-197.5864389404863
 30
0.0
 10
511.3696368083809
 20
-197.625658473223
 30
0.0
 10
510.945968068282
 20
-197.6515557902185
 30
0.0
 10
508.832707848445
 20
-197.810995913096
 30
0.0
 10
507.167880697227
 20
-198.0321154694673
 30
0.0
 10
504.7069583740746
 20
-198.4891992809776
 30
0.0
 10
503.8927516631079
 20
-198.6626400323825
 30
0.0
 10
502.6807242663625
 20
-198.9540964963994
 30
0.0
 10
502.277146552975
 20
-199.0567881090505
 30
0.0
 10
501.4803268433673
 20
-199.270725501776
 30
0.0
 10
501.0868623035616
 20
-199.3819861597413
 30
0.0
 10
499.1438032564438
 20
-199.9589384578985
 30
0.0
 10
497.666291026901
 20
-200.4858152269707
 30
0.0
 10
495.9154722300074
 20
-201.2210543067884
 30
0.0
 10
495.5701563246041
 20
-201.3719814460845
 30
0.0
 10
494.8894003018752
 20
-201.6816609192373
 30
0.0
 10
494.5531652721499
 20
-201.840828092835
 30
0.0
 10
493.5698833795319
 20
-202.3251180920374
 30
0.0
 10
492.9456316441598
 20
-202.6580421795771
 30
0.0
 10
491.1640338384114
 20
-203.6858688714399
 30
0.0
 10
490.0969686961353
 20
-204.4093552763558
 30
0.0
 10
488.918537670678
 20
-205.3648993016023
 30
0.0
 10
488.6907245181296
 20
-205.5586490179257
 30
0.0
 10
488.2559186775502
 20
-205.947077181891
 30
0.0
 10
488.0482344909401
 20
-206.1422987036789
 30
0.0
 10
487.4538247769298
 20
-206.7311233220795
 30
0.0
 10
487.0956737628741
 20
-207.127870280319
 30
0.0
 10
486.4546017290915
 20
-207.9308806143605
 30
0.0
 10
486.1716798499293
 20
-208.3371417242474
 30
0.0
 10
485.6822619189296
 20
-209.1608461651313
 30
0.0
 10
485.4752417840691
 20
-209.5803268262305
 30
0.0
 10
484.9823957557782
 20
-210.833691092216
 30
0.0
 10
484.8187004587496
 20
-211.6679313804064
 30
0.0
 10
484.8163919088983
 20
-212.9285707724076
 30
0.0
 10
484.8565724188491
 20
-213.3509224007696
 30
0.0
 10
485.0211636025748
 20
-214.1983775952218
 30
0.0
 10
485.1443236483356
 20
-214.6176520873456
 30
0.0
 10
485.632473375528
 20
-215.8652377848769
 30
0.0
 10
486.1149905542653
 20
-216.6834633189509
 30
0.0
 10
487.0800871127659
 20
-217.8994781232078
 30
0.0
 10
487.443710589989
 20
-218.3037881022193
 30
0.0
 10
488.2366952893083
 20
-219.0917369314971
 30
0.0
 10
488.6675987111898
 20
-219.477614094006
 30
0.0
 10
489.5971085499814
 20
-220.2342830454351
 30
0.0
 10
490.0957158250697
 20
-220.6050733444884
 30
0.0
 10
490.8950427008816
 20
-221.1501962665495
 30
0.0
 10
491.1700695201753
 20
-221.3300543083606
 30
0.0
 10
491.7375899953355
 20
-221.6860412689163
 30
0.0
 10
492.0309569181225
 20
-221.8626643048198
 30
0.0
 10
493.5302896463604
 20
-222.7292759646508
 30
0.0
 10
494.8290390896261
 20
-223.3690833121808
 30
0.0
 10
496.9210959468563
 20
-224.249298136624
 30
0.0
 10
497.6426142101978
 20
-224.5293187591272
 30
0.0
 10
498.7621311598252
 20
-224.9281064065631
 30
0.0
 10
499.1422631629886
 20
-225.0577007666686
 30
0.0
 10
499.9068982757081
 20
-225.3068550381954
 30
0.0
 10
500.292256276901
 20
-225.4267412939406
 30
0.0
 10
502.2340008174078
 20
-226.0027853894861
 30
0.0
 10
503.8348035715565
 20
-226.3896042363787
 30
0.0
 10
506.3078699452726
 20
-226.8501728928992
 30
0.0
 10
507.1488783568311
 20
-226.9840852601241
 30
0.0
 10
508.8256314303791
 20
-227.2045173764449
 30
0.0
 10
509.6625946827994
 20
-227.2915476910441
 30
0.0
 10
512.1696426735756
 20
-227.4821064057205
 30
0.0
 10
513.8359193266451
 20
-227.5158584456634
 30
0.0
 10
516.328606338059
 20
-227.4098068455607
 30
0.0
 10
517.1468555124334
 20
-227.3485518189511
 30
0.0
 10
518.751938264145
 20
-227.1746699311765
 30
0.0
 10
519.539956105823
 20
-227.0619920140872
 30
0.0
 10
521.0872178525733
 20
-226.7839941973419
 30
0.0
 10
521.8464627796624
 20
-226.618678238572
 30
0.0
 10
523.3355835272973
 20
-226.2329149712436
 30
0.0
 10
524.0680331759248
 20
-226.0113251260751
 30
0.0
 10
526.1799802331324
 20
-225.2729959781363
 30
0.0
 10
527.4864843649603
 20
-224.6811853159712
 30
0.0
 10
528.6897948555397
 20
-223.9865289559361
 30
0.0
  0
LINE
  5
12E
330
1F
100
AcDbEntity
  8
0
  6
Continuous
 62
     7
370
    25
100
AcDbLine
 10
468.1008457487
 20
-234.4366177175
 30
0.0
 11
465.2719588877
 21
-236.0696993412
 31
0.0
  0
LWPOLYLINE
  5
12F
330
1F
100
AcDbEntity
  8
0
  6
Continuous
 62
     7
370
    25
100
AcDbPolyline
 90
       27
 70
   128
 43
0.0
 10
469.283140064
 20
-254.4416193664
 10
471.7575614588
 20
-256.3552822127
 10
476.567555741
 20
-260.29097874
 10
481.3218259315
 20
-264.4686850365
 10
486.0086593994
 20
-268.8781088954
 10
490.6165096508
 20
-273.5083872499
 10
495.1340247753
 20
-278.3481129355
 10
499.5500754122
 20
-283.3853627929
 10
503.8537821689
 20
-288.6077270418
 10
508.0345424236
 20
-294.0023398534
 10
512.0820564456
 20
-299.5559110472
 10
515.98635277
 20
-305.2547588324
 10
519.7378127635
 20
-311.0848435145
 10
523.3271943204
 20
-317.0318020833
 10
526.7456546322
 20
-323.0809835981
 10
529.9847719721
 20
-329.2174852812
 10
533.0365664431
 20
-335.426189233
 10
535.8935196374
 20
-341.691799676
 10
538.5485931585
 20
-347.998880638
 10
540.995245961
 20
-354.3318939797
 10
543.2274504656
 20
-360.6752376748
 10
545.2397074081
 20
-367.0132842472
 10
547.0270593875
 20
-373.3304192706
 10
548.5851030795
 20
-379.6110798368
 10
549.910000084
 20
-385.8397928957
 10
550.9984863817
 20
-392.0012133756
 10
551.7511610941
 20
-397.295900349
  0
LINE
  5
130
330
1F
100
AcDbEntity
  8
0
  6
Continuous
 62
     7
370
    25
100
AcDbLine
 10
549.8420537454
 20
-442.2736264559
 30
0.0
 11
549.1675389511
 21
-444.7654017113
 31
0.0
  0
LINE
  5
131
330
1F
100
AcDbEntity
  8
0
  6
Continuous
 62
     7
370
    25
100
AcDbLine
 10
516.3690028682
 20
-463.6995935663
 30
0.0
 11
552.0854706959
 21
-443.0809155703
 31
0.0
  0
LWPOLYLINE
  5
132
330
1F
100
AcDbEntity
  8
0
  6
Continuous
 62
     7
370
    25
100
AcDbPolyline
 90
       36
 70
   128
 43
0.0
 10
390.5618588528
 20
-289.277695418
 10
391.0476859213
 20
-295.3318031837
 10
391.7865184364
 20
-301.4960754489
 10
392.7764539375
 20
-307.7546394902
 10
394.0149433854
 20
-314.0913797872
 10
395.4987977255
 20
-320.489979519
 10
397.2241960998
 20
-326.9339625795
 10
399.1866956851
 20
-333.4067360027
 10
401.3812431334
 20
-339.8916326886
 10
403.8021875839
 20
-346.3719543202
 10
406.4432952137
 20
-352.8310143614
 10
409.2977652897
 20
-359.2521810235
 10
412.3582476799
 20
-365.6189200915
 10
415.6168617801
 20
-371.9148374993
 10
419.0652168057
 20
-378.123721543
 10
422.6944333979
 20
-384.229584626
 10
426.4951664875
 20
-390.2167044258
 10
430.4576293579
 20
-396.0696643786
 10
434.5716188458
 20
-401.7733933764
 10
438.8265416136
 20
-407.3132045737
 10
443.2114414267
 20
-412.6748332064
 10
447.7150273658
 20
-417.8444733222
 10
452.3257028998
 20
-422.8088133307
 10
457.0315957471
 20
-427.55507028
 10
461.8205884454
 20
-432.0710227723
 10
466.6803495543
 20
-436.3450424333
 10
471.5983654079
 20
-440.3661238549
 10
476.5619723369
 20
-444.1239129337
 10
481.558389277
 20
-447.6087335319
 10
486.5747506798
 20
-450.8116123936
 10
491.5981396404
 20
-453.7243022499
 10
496.6156211588
 20
-456.3393030558
 10
501.6142754459
 20
-458.6498813018
 10
506.5812311922
 20
-460.6500873531
 10
511.5036987103
 20
-462.3347707693
 10
516.3690028682
 20
-463.6995935663
  0
LINE
  5
133
330
1F
100
AcDbEntity
  8
0
  6
Continuous
 62
     7
370
    25
100
AcDbLine
 10
428.4373412506
 20
-267.4126448404
 30
0.0
 11
390.5618588528
 21
-289.277695418
 31
0.0
  0
LINE
  5
134
330
1F
100
AcDbEntity
  8
0
  6
Continuous
 62
     7
370
    25
100
AcDbLine
 10
390.5618588528
 20
-289.277695418
 30
0.0
 11
385.6000417204
 21
-286.4132993578
 31
0.0
  0
LINE
  5
135
330
1F
100
AcDbEntity
  8
0
  6
Continuous
 62
     7
370
    25
100
AcDbLine
 10
516.3690028682
 20
-469.6303845875
 30
0.0
 11
516.3690028682
 21
-463.6995935663
 31
0.0
  0
LINE
  5
136
330
1F
100
AcDbEntity
  8
0
  6
Continuous
 62
     7
370
    25
100
AcDbLine
 10
452.7293925614
 20
-228.8290299231
 30
0.0
 11
339.5923075716
 21
-294.1416788689
 31
0.0
  0
LINE
  5
137
330
1F
100
AcDbEntity
  8
0
  6
Continuous
 62
     7
370
    25
100
AcDbLine
 10
452.7293925614
 20
-234.5448156063
 30
0.0
 11
339.5923075716
 21
-299.8574645521
 31
0.0
  0
LINE
  5
138
330
1F
100
AcDbEntity
  8
0
  6
Continuous
 62
     7
370
    25
100
AcDbLine
 10
339.5923075716
 20
-294.1416788689
 30
0.0
 11
339.5923075716
 21
-299.8574645521
 31
0.0
  0
LINE
  5
139
330
1F
100
AcDbEntity
  8
0
  6
Continuous
 62
     7
370
    25
100
AcDbLine
 10
339.5923075716
 20
-299.8574645521
 30
0.0
 11
350.1989092894
 21
-305.9805253908
 31
0.0
  0
LINE
  5
13A
330
1F
100
AcDbEntity
  8
0
  6
Continuous
 62
     7
370
    25
100
AcDbLine
 10
452.7293925614
 20
-225.5628666755
 30
0.0
 11
339.5923075716
 21
-290.8755156214
 31
0.0
  0
LINE
  5
13B
330
1F
100
AcDbEntity
  8
0
  6
Continuous
 62
     7
370
    25
100
AcDbLine
 10
339.5923075716
 20
-290.8755156214
 30
0.0
 11
342.4211944326
 21
-292.5085972451
 31
0.0
  0
LINE
  5
13C
330
1F
100
AcDbEntity
  8
0
  6
Continuous
 62
     7
370
    25
100
AcDbLine
 10
452.7293925614
 20
-219.8470809923
 30
0.0
 11
339.5923075716
 21
-285.1597299382
 31
0.0
  0
LINE
  5
13D
330
1F
100
AcDbEntity
  8
0
  6
Continuous
 62
     7
370
    25
100
AcDbLine
 10
339.5923075716
 20
-285.1597299382
 30
0.0
 11
339.5923075716
 21
-290.8755156214
 31
0.0
  0
ARC
  5
13E
330
1F
100
AcDbEntity
  8
0
  6
Continuous
 62
     7
370
    25
100
AcDbCircle
 10
556.4420859048
 20
-165.3098652082
 30
0.0
 40
3.440132544473211
100
AcDbArc
 50
113.5991707576
 51
175.0806882848
  0
LWPOLYLINE
  5
13F
330
1F
100
AcDbEntity
  8
0
  6
Continuous
 62
     7
370
    25
100
AcDbPolyline
 90
       12
 70
   128
 43
0.0
 10
567.0146252621
 20
-165.0148644184
 10
566.9706107314
 20
-164.5624144047
 10
566.6218085743
 20
-163.6802021102
 10
565.9416946567
 20
-162.8649153569
 10
564.9643727304
 20
-162.157436027
 10
563.7388497977
 20
-161.5932400882
 10
562.3265786958
 20
-161.2006186808
 10
560.7983765948
 20
-160.9992594815
 10
559.2308739294
 20
-160.9992594815
 10
557.7026718284
 20
-161.2006186808
 10
556.2904007265
 20
-161.5932400882
 10
555.0648777938
 20
-162.157436027
  0
LWPOLYLINE
  5
140
330
1F
100
AcDbEntity
  8
0
  6
Continuous
 62
     7
370
    25
100
AcDbPolyline
 90
       24
 70
   128
 43
0.0
 10
488.2432869717
 20
-137.454057541
 10
490.693558261
 20
-136.1804256598
 10
493.3610209761
 20
-135.0616275813
 10
496.2164498372
 20
-134.1099210915
 10
499.2285601684
 20
-133.3357332857
 10
502.3643506583
 20
-132.7475463277
 10
505.5894649303
 20
-132.3518045168
 10
508.8685679574
 20
-132.152843683
 10
512.1657332007
 20
-132.152843683
 10
515.4448362278
 20
-132.3518045168
 10
518.6699504998
 20
-132.7475463277
 10
521.8057409897
 20
-133.3357332857
 10
524.8178513208
 20
-134.1099210915
 10
527.673280182
 20
-135.0616275813
 10
530.3407428971
 20
-136.1804256598
 10
532.7910141864
 20
-137.454057541
 10
534.9972483649
 20
-138.8685690476
 10
536.9352734693
 20
-140.4084624955
 10
538.583856091
 20
-142.0568664898
 10
539.9249340137
 20
-143.7957207714
 10
540.9438141072
 20
-145.6059740889
 10
541.6293333078
 20
-147.4677929282
 10
541.9739809238
 20
-149.3607788124
 10
542.017150579
 20
-150.3124853022
  0
LWPOLYLINE
  5
141
330
1F
100
AcDbEntity
  8
0
  6
Continuous
 62
     7
370
    25
100
AcDbPolyline
 90
        9
 70
   128
 43
0.0
 10
479.017150579
 20
-150.3124853022
 10
479.0603202343
 20
-149.3607788124
 10
479.4049678503
 20
-147.4677929282
 10
480.0904870509
 20
-145.6059740889
 10
481.1093671444
 20
-143.7957207714
 10
482.4504450671
 20
-142.0568664898
 10
484.0990276888
 20
-140.4084624955
 10
486.0370527932
 20
-138.8685690476
 10
488.2432869717
 20
-137.454057541
  0
ENDSEC
  0
SECTION
  2
OBJECTS
  0
DICTIONARY
  5
C
330
0
100
AcDbDictionary
281
     1
  3
ACAD_GROUP
350
D
  3
ACAD_LAYOUT
350
1A
  3
ACAD_MLINESTYLE
350
17
  3
ACAD_PLOTSETTINGS
350
19
  3
ACAD_PLOTSTYLENAME
350
E
  3
ACAD_SCALELIST
350
47
  3
DWGPROPS
350
142
  0
DICTIONARY
  5
D
102
{ACAD_REACTORS
330
C
102
}
330
C
100
AcDbDictionary
281
     1
  0
DICTIONARY
  5
1A
102
{ACAD_REACTORS
330
C
102
}
330
C
100
AcDbDictionary
281
     1
  3
Layout1
350
1E
  3
Layout2
350
26
  3
Model
350
22
  0
DICTIONARY
  5
17
102
{ACAD_REACTORS
330
C
102
}
330
C
100
AcDbDictionary
281
     1
  3
Standard
350
18
  0
DICTIONARY
  5
19
102
{ACAD_REACTORS
330
C
102
}
330
C
100
AcDbDictionary
281
     1
  0
ACDBDICTIONARYWDFLT
  5
E
102
{ACAD_REACTORS
330
C
102
}
330
C
100
AcDbDictionary
281
     1
  3
Normal
350
F
100
AcDbDictionaryWithDefault
340
F
  0
DICTIONARY
  5
47
102
{ACAD_REACTORS
330
C
102
}
330
C
100
AcDbDictionary
281
     1
  3
A0
350
48
  3
A1
350
49
  3
A2
350
4A
  3
A3
350
4B
  3
A4
350
4C
  3
A5
350
4D
  3
A6
350
4E
  3
A7
350
4F
  3
A8
350
50
  3
A9
350
51
  3
B0
350
52
  3
B1
350
53
  3
B2
350
54
  3
B3
350
55
  3
B4
350
56
  3
B5
350
57
  3
B6
350
58
  3
B7
350
59
  3
B8
350
5A
  3
B9
350
5B
  3
C0
350
5C
  3
C1
350
5D
  3
C2
350
5E
  3
C3
350
5F
  3
C4
350
60
  3
C5
350
61
  3
C6
350
62
  3
C7
350
63
  3
C8
350
64
  3
C9
350
65
  3
D0
350
66
  3
D1
350
67
  3
D2
350
68
  0
XRECORD
  5
142
102
{ACAD_REACTORS
330
C
102
}
330
C
100
AcDbXrecord
280
     1
  1
DWGPROPS COOKIE
  2

  3

  4

  6

  7

  8
b.kav
  9

300
=
301
=
302
=
303
=
304
=
305
=
306
=
307
=
308
=
309
=
 40
0.0
 41
2459741.489621354
 42
2459741.489621528
  1

 90
        0
  0
LAYOUT
  5
1E
102
{ACAD_REACTORS
330
1A
102
}
330
1A
100
AcDbPlotSettings
  1

  2
none_device
  4

  6

 40
0.0
 41
0.0
 42
0.0
 43
0.0
 44
0.0
 45
0.0
 46
0.0
 47
0.0
 48
0.0
 49
0.0
140
0.0
141
0.0
142
1.0
143
1.0
 70
   688
 72
     1
 73
     0
 74
     5
  7

 75
    16
147
1.0
148
0.0
149
0.0
100
AcDbLayout
  1
Layout1
 70
     1
 71
     1
 10
0.0
 20
0.0
 11
420.0
 21
297.0
 12
0.0
 22
0.0
 32
0.0
 14
1.0000000000E+20
 24
1.0000000000E+20
 34
1.0000000000E+20
 15
-1.0000000000E+20
 25
-1.0000000000E+20
 35
-1.0000000000E+20
146
0.0
 13
0.0
 23
0.0
 33
0.0
 16
1.0
 26
0.0
 36
0.0
 17
0.0
 27
1.0
 37
0.0
 76
     0
330
1B
  0
LAYOUT
  5
26
102
{ACAD_REACTORS
330
1A
102
}
330
1A
100
AcDbPlotSettings
  1

  2
none_device
  4

  6

 40
0.0
 41
0.0
 42
0.0
 43
0.0
 44
0.0
 45
0.0
 46
0.0
 47
0.0
 48
0.0
 49
0.0
140
0.0
141
0.0
142
1.0
143
1.0
 70
   688
 72
     1
 73
     0
 74
     5
  7

 75
    16
147
1.0
148
0.0
149
0.0
100
AcDbLayout
  1
Layout2
 70
     1
 71
     2
 10
0.0
 20
0.0
 11
0.0
 21
0.0
 12
0.0
 22
0.0
 32
0.0
 14
0.0
 24
0.0
 34
0.0
 15
0.0
 25
0.0
 35
0.0
146
0.0
 13
0.0
 23
0.0
 33
0.0
 16
1.0
 26
0.0
 36
0.0
 17
0.0
 27
1.0
 37
0.0
 76
     0
330
23
  0
LAYOUT
  5
22
102
{ACAD_REACTORS
330
1A
102
}
330
1A
100
AcDbPlotSettings
  1

  2
none_device
  4
Letter_(8.50_x_11.00_Inches)
  6

 40
6.35
 41
6.35
 42
6.35000508
 43
6.35000508
 44
215.9
 45
279.4
 46
0.0
 47
0.0
 48
0.0
 49
0.0
140
0.0
141
0.0
142
1.0
143
1.0
 70
  1712
 72
     1
 73
     0
 74
     0
  7

 75
     0
147
1.0
148
0.0
149
0.0
100
AcDbLayout
  1
Model
 70
     1
 71
     0
 10
0.0
 20
0.0
 11
279.4
 21
215.9
 12
0.0
 22
0.0
 32
0.0
 14
0.0
 24
0.0
 34
0.0
 15
279.4
 25
215.9
 35
0.0
146
0.0
 13
0.0
 23
0.0
 33
0.0
 16
1.0
 26
0.0
 36
0.0
 17
0.0
 27
1.0
 37
0.0
 76
     0
330
1F
331
29
  0
MLINESTYLE
  5
18
102
{ACAD_REACTORS
330
17
102
}
330
17
100
AcDbMlineStyle
  2
Standard
 70
     0
  3

 62
   256
 51
90.0
 52
90.0
 71
     2
 49
0.5
 62
   256
  6
BYLAYER
 49
-0.5
 62
   256
  6
BYLAYER
  0
ACDBPLACEHOLDER
  5
F
102
{ACAD_REACTORS
330
E
102
}
330
E
  0
SCALE
  5
48
102
{ACAD_REACTORS
330
47
102
}
330
47
100
AcDbScale
 70
     0
300
1:1
140
1.0
141
1.0
290
     1
  0
SCALE
  5
49
102
{ACAD_REACTORS
330
47
102
}
330
47
100
AcDbScale
 70
     0
300
1:2
140
1.0
141
2.0
290
     0
  0
SCALE
  5
4A
102
{ACAD_REACTORS
330
47
102
}
330
47
100
AcDbScale
 70
     0
300
1:4
140
1.0
141
4.0
290
     0
  0
SCALE
  5
4B
102
{ACAD_REACTORS
330
47
102
}
330
47
100
AcDbScale
 70
     0
300
1:5
140
1.0
141
5.0
290
     0
  0
SCALE
  5
4C
102
{ACAD_REACTORS
330
47
102
}
330
47
100
AcDbScale
 70
     0
300
1:8
140
1.0
141
8.0
290
     0
  0
SCALE
  5
4D
102
{ACAD_REACTORS
330
47
102
}
330
47
100
AcDbScale
 70
     0
300
1:10
140
1.0
141
10.0
290
     0
  0
SCALE
  5
4E
102
{ACAD_REACTORS
330
47
102
}
330
47
100
AcDbScale
 70
     0
300
1:16
140
1.0
141
16.0
290
     0
  0
SCALE
  5
4F
102
{ACAD_REACTORS
330
47
102
}
330
47
100
AcDbScale
 70
     0
300
1:20
140
1.0
141
20.0
290
     0
  0
SCALE
  5
50
102
{ACAD_REACTORS
330
47
102
}
330
47
100
AcDbScale
 70
     0
300
1:30
140
1.0
141
30.0
290
     0
  0
SCALE
  5
51
102
{ACAD_REACTORS
330
47
102
}
330
47
100
AcDbScale
 70
     0
300
1:40
140
1.0
141
40.0
290
     0
  0
SCALE
  5
52
102
{ACAD_REACTORS
330
47
102
}
330
47
100
AcDbScale
 70
     0
300
1:50
140
1.0
141
50.0
290
     0
  0
SCALE
  5
53
102
{ACAD_REACTORS
330
47
102
}
330
47
100
AcDbScale
 70
     0
300
1:100
140
1.0
141
100.0
290
     0
  0
SCALE
  5
54
102
{ACAD_REACTORS
330
47
102
}
330
47
100
AcDbScale
 70
     0
300
2:1
140
2.0
141
1.0
290
     0
  0
SCALE
  5
55
102
{ACAD_REACTORS
330
47
102
}
330
47
100
AcDbScale
 70
     0
300
4:1
140
4.0
141
1.0
290
     0
  0
SCALE
  5
56
102
{ACAD_REACTORS
330
47
102
}
330
47
100
AcDbScale
 70
     0
300
8:1
140
8.0
141
1.0
290
     0
  0
SCALE
  5
57
102
{ACAD_REACTORS
330
47
102
}
330
47
100
AcDbScale
 70
     0
300
10:1
140
10.0
141
1.0
290
     0
  0
SCALE
  5
58
102
{ACAD_REACTORS
330
47
102
}
330
47
100
AcDbScale
 70
     0
300
100:1
140
100.0
141
1.0
290
     0
  0
SCALE
  5
59
102
{ACAD_REACTORS
330
47
102
}
330
47
100
AcDbScale
 70
     0
300
1/128" = 1'-0"
140
0.0078125
141
12.0
290
     0
  0
SCALE
  5
5A
102
{ACAD_REACTORS
330
47
102
}
330
47
100
AcDbScale
 70
     0
300
1/64" = 1'-0"
140
0.015625
141
12.0
290
     0
  0
SCALE
  5
5B
102
{ACAD_REACTORS
330
47
102
}
330
47
100
AcDbScale
 70
     0
300
1/32" = 1'-0"
140
0.03125
141
12.0
290
     0
  0
SCALE
  5
5C
102
{ACAD_REACTORS
330
47
102
}
330
47
100
AcDbScale
 70
     0
300
1/16" = 1'-0"
140
0.0625
141
12.0
290
     0
  0
SCALE
  5
5D
102
{ACAD_REACTORS
330
47
102
}
330
47
100
AcDbScale
 70
     0
300
3/32" = 1'-0"
140
0.09375
141
12.0
290
     0
  0
SCALE
  5
5E
102
{ACAD_REACTORS
330
47
102
}
330
47
100
AcDbScale
 70
     0
300
1/8" = 1'-0"
140
0.125
141
12.0
290
     0
  0
SCALE
  5
5F
102
{ACAD_REACTORS
330
47
102
}
330
47
100
AcDbScale
 70
     0
300
3/16" = 1'-0"
140
0.1875
141
12.0
290
     0
  0
SCALE
  5
60
102
{ACAD_REACTORS
330
47
102
}
330
47
100
AcDbScale
 70
     0
300
1/4" = 1'-0"
140
0.25
141
12.0
290
     0
  0
SCALE
  5
61
102
{ACAD_REACTORS
330
47
102
}
330
47
100
AcDbScale
 70
     0
300
3/8" = 1'-0"
140
0.375
141
12.0
290
     0
  0
SCALE
  5
62
102
{ACAD_REACTORS
330
47
102
}
330
47
100
AcDbScale
 70
     0
300
1/2" = 1'-0"
140
0.5
141
12.0
290
     0
  0
SCALE
  5
63
102
{ACAD_REACTORS
330
47
102
}
330
47
100
AcDbScale
 70
     0
300
3/4" = 1'-0"
140
0.75
141
12.0
290
     0
  0
SCALE
  5
64
102
{ACAD_REACTORS
330
47
102
}
330
47
100
AcDbScale
 70
     0
300
1" = 1'-0"
140
1.0
141
12.0
290
     0
  0
SCALE
  5
65
102
{ACAD_REACTORS
330
47
102
}
330
47
100
AcDbScale
 70
     0
300
1-1/2" = 1'-0"
140
1.5
141
12.0
290
     0
  0
SCALE
  5
66
102
{ACAD_REACTORS
330
47
102
}
330
47
100
AcDbScale
 70
     0
300
3" = 1'-0"
140
3.0
141
12.0
290
     0
  0
SCALE
  5
67
102
{ACAD_REACTORS
330
47
102
}
330
47
100
AcDbScale
 70
     0
300
6" = 1'-0"
140
6.0
141
12.0
290
     0
  0
SCALE
  5
68
102
{ACAD_REACTORS
330
47
102
}
330
47
100
AcDbScale
 70
     0
300
1'-0" = 1'-0"
140
12.0
141
12.0
290
     0
  0
ENDSEC
  0
EOF
